Ben Folds Five - She Dont Use Jelly Chords & Tabs

 

She Dont Use Jelly Chords & Tabs

Ben Folds Five Chords & Tabs

Version: 1 Type: Bass Tab 0 ratings
1 star 2 stars 3 stars 4 stars 5 stars
comments

She Dont Use Jelly Bass Tab

"She Don't Use Jelly" written by Flaming lips
preformed by Ben Folds Five
tabbed by Tim Swan


intro - play twice
G-5---5---5---5---------------------
D---5---5---5------5-------4-8-7-5--
A--------------------5-5-5----------
E-----------------------------------

Verse - The first part is the same as the intro but then changes
G-5---5---5---5-------------------5---5---5---5------------------
D---5---5---5----5-------4-8-7-5----5---5---5----5-------4-8-7-5-
A------------------5-5-5---------------------------5-5-5---------
E----------------------------------------------------------------
[ Tab from: http://www.guitartabs.cc/tabs/b/ben_folds_five/she_dont_use_jelly_btab.html ]
G----------------------------2--7---7---7---7--3---3---3----
D-3-------3---3--2-----2---2------7---7---7------3---3------
A---3-3-3---3------2-2---2----------------------------------
E-----------------------------------------------------------

Chorus - Play twice
G-----------------------------3----3---3-4--
D------------------3------2-3----3---3------
A-3--3-3--------------3-5-------------------
E--------3--3-3-3---------------------------

I didn't tab out a part or two just because it would be a waste.  The 
part after the chorus leading into the next verse is one of them.  Its 
almost the same as the main part, just listen as to how it changes.  
Also watch to make sure I didn't make any mistakes on the verses.  I 
couldn't tell what octave they were in.  

rock1813@hotmail.com
Comments