Ben Folds Five - Magic Chords & Tabs

 

Magic Chords & Tabs

Ben Folds Five Chords & Tabs

Version: 1 Type: Bass Tab 0 ratings
1 star 2 stars 3 stars 4 stars 5 stars
comments

Magic Bass Tab

"Magic" by Ben Folds Five
Tabbed by Tim Swan

Nothing Until the first chorus - "saw you last night..."
G--------------------------------
D--------------------------------
A-5-------3---------------3---5--
E-----3-------5---6---3----------
[ Tab from: http://www.guitartabs.cc/tabs/b/ben_folds_five/magic_btab.html ]
"Sha la la..." - Play Twice
G------------------------------------------
D--------3----------3----------------------
A-5---3------5---3--------3---------3------
E----------------------6------5--6---------

Verse
G--------------------------------------------------------
D--------------------------------------------------------
A-5---3-----1--3----5---3-----1--3-----5--3-----1--3--5--
E--------1--------5--------1--------5--------1-----------

Chorus again except change the last note to a low F (E-1-)

After that just play the Sha la part until the end.

rock1813@hotmail.com
Comments