Ben Folds Five - Landed Chords & Tabs

 

Landed Chords & Tabs

Ben Folds Five Chords & Tabs

Version: 1 Type: Bass Tab

Landed Bass Tab

                                LANDED (Bassline)
                            As recorded by Ben Folds
                    (From the 2005 Album SONGS FOR SILVERMAN)

Words and Music by Ben Folds
Arranged by Ben Folds
Transcribed by Sam Osborn

The verse is correct but the chorus and stuff are just the basics, as the song goes on
it gets much more into it so improvise a lot with sliding and repeating notes etc. The
bass player also uses the semitone before the note.
Listen to the CD.

(if there any bars that are blank such as the first one, it means there's a rest)

 Intro
 4/4
  Gtr I
|-----|
|-----|
|-----|
|-----|


 Intro pt 2
  Q=80
 4/4
|------------|-----------|------------|--------------|
|------2S3---|-----------|------------|--------------|
|-1----------|-6---------|--------4S6-|--------------|
|------------|------6----|-4----------|-6-----(6)S13-|


|------------|-----------|------------|------------|
|------------|-----------|------------|------------|
|------------|-----------|---------4S6---------5-6-|
|------------|-----------|------------|-0-1--------|


|---------------|----------------|---------------|------------|
|---------------|----------------|---------------|------------|
|-1----1--1-(1)-|----------------|---------------|-4S6--5-6---|
|---------------|-1----1-1-(1)---|-3----3-3-(3)--|------------|


|---------------|------------|----|
|---------------|------------|----|
|---------------|-5S=6-------|----|
|-1----1-1-(1)--|------------|----|

[ Tab from: http://www.guitartabs.cc/tabs/b/ben_folds_five/landed_btab.html ]
 Chorus
|-----------|-----------|-----------|----------|
|-----------|-----------|-----------|----------|
|-1---------|-3---------|-6---------|-6--------|
|------1----|-----------|------6----|--------1-|


|-----------|----------|-----------|-----------|
|-----------|----------|-----------|-----------|
|-1---------|-3--------|-6---------|-6------5--|
|------1----|----------|------6----|-----------|


|----------|----------|----|
|----------|----------|----|
|-3--------|----------|----|
|----------|-1--------|----|


   Interlude
||-------------|-----------|------------|---------------||
||o------2S3---|-----------|------------|--------------o||
||o-1----------|-6---------|------4S6---|--------------o||
||-------------|------6----|-4----------|-6----(6)S=13--||



Another Verse then Chorus


   Bridge
                          3x
||------------|-----------||---------------------------------|
||o-----------|----------o||---------------------------------|
||o-3------1--|----------o||---------------------------------|
||------------|-1---------||-1-1-1-1-1-1-1-1-1-1-1-1-1-1-1-1-|


|-----------------|----|
|-----------------|----|
|-----------------|----|
|-1-1-1-1-1-1-1-1-|----|


 Interlude and then Chorus


   Outro
||-------------|-----------|------------|---------------||
||o------2S3---|-----------|------------|--------------o||
||o-1----------|-6---------|------4S6---|--------------o||
||-------------|------6----|-4----------|-6----(6)S=13--||


  >
|-----------|------------|------------|--------*|
|-----------|------------|------------|--------*|
|-1---------|-(1)--------|-(1)--------|-(1)----*|
|-----------|------------|------------|--------*|



***************************************************************************************
* Generated using Power Tab Editor by Brad Larsen - http://powertab.guitarnetwork.org *