Ben Folds Five - Jackson Cannery Chords & Tabs

 

Jackson Cannery Chords & Tabs

Ben Folds Five Chords & Tabs

Version: 1 Type: Bass Tab 0 ratings
1 star 2 stars 3 stars 4 stars 5 stars
comments

Jackson Cannery Bass Tab

"Jackson Cannery" by Ben Folds Five
Tabbed by Tim Swan

This one took me along time to do.

Verse One - "Stop the bus..."
G----------------------------------------------------------------------
D---------------------------------2-2-2-2-2-2-2-2--5-5-5-5-5-5-5-5-5-5-
A-3-3-3-3-3-3-3-3-5-5-5-5-5-5-5-5--------------------------------------
E----------------------------------------------------------------------

G----------------------------------------------
D-5-5-5-5-5-5-------------4---5---6------------
A-------------5-5------------------------------
E-----------------0-1-2-2---3---4---4-4--4-3/--

Verse Two - "All she wants..."
G-------------------------------------------------------------------
D---------------------------------2-2-2-2-2-2-2-2--5-5-5-5-5-5---5--
A-3-3-3-3-3-3-3-3-5-5-5-5-5-5-5-5------------------------------5----
E-------------------------------------------------------------------

G------------------------------------------------------
D---------------------------------4---5---6------------
A---------2-2-3-3-4-4-5-5------------------------------
E-0-1-3-3-----------------0-1-2-2---3---4---4-4--4-3/--

[ Tab from: http://www.guitartabs.cc/tabs/b/ben_folds_five/jackson_cannery_btab.html ]
Chrous - "Did mother nature..."
G------------------------------------------------------2-5---------
D------------------------------------------------1-2-5-----0-0-0-1-
A-5---5-5---5-5---5-5----------------------2-3-3-------------------
E---3-----3-----3------3-4-5-5-5-5-3-3-3-3-------------------------


G----------------------------------------------
D-2---2--2-3-4-5-----------7-----7-------------
A---2------------------------------5---5-------
E----------------3-3-4-5-5---5-5-----3---5-7-8-

"Whoa, Whoa..."
G--------------------------------------5-----------5-------
D----------------------------------5-7---------5-7---------
A------------------5---5-------6-7---------6-7-------------
E-8-8--8-8--8-8-8----3---5-7-8-----------8-----------8-10--

Bridge - "It's four in the morning..."
G------------------------------------------------------------------
D----------------------2-2-2-2-2-2---------------------------------
A-2-5---5-4-3--5---5-5-------------3-3-3-3-3-3-3-3-3-3-3-3-3-3-3-3-
E-----3----------5-------------------------------------------------

G------------------------------------------------------
D-----------------2-2-2-2-2-2-2-2-5-5-5-5-5-5-5-5-5\---
A-5-5-5-5-5-5-5-5--------------------------------------
E------------------------------------------------------

Thats the whole songs.  Just play the chorus alittle different 
at the end and you got it.

rock1813@hotmail.com
Comments