Ben Folds Five - Fred Jones Part 2 Chords & Tabs

 

Fred Jones Part 2 Chords & Tabs

Ben Folds Five Chords & Tabs

Version: 2 Type: Tab 0 ratings
1 star 2 stars 3 stars 4 stars 5 stars
comments

Fred Jones Part 2 Tab

   
Tabbed by:Charles	
Email: lunchbox@cycleforums.com      Feel free to email with questions

Tuning:E-A-D-G-B-E (STANDARD)

INTRO: YOU CAN GET BY PICKING WITH YOUR THUMB AND FOREFINGER HERE

e|-3--3--3P0--3--3--3P0--3--3--3P0--3--3-5-0-1-------------------------------|
B|---------------------------------------------------------------------------|
G|--------------------------------------------------REPEAT-------------------|
D|--- 2----------2----------0----------0-------------------------------------|
A|-3----------0--------------------------------------------------------------|
E|-----------------------1----------3----------------------------------------|


VERSE: YOU CAN PICK THIS WITH THE SAME METHOD AS ABOVE OR JUST STRUM IT

   FRED SITS ALONE AT HIS DESK IN THE DARK. THERES AN AKWARD YOUNG SHADOW, THAT WAITS IN THE HALL
[ Tab from: http://www.guitartabs.cc/tabs/b/ben_folds_five/fred_jones_part_2_tab_ver_2.html ]
   C           Am          F          G     (REPEAT)  C            Am           F            G
e|------------------------------------3----------------------------------------------------------|
B|-1-----------1-----------1----------3----------------------------------------------------------|
G|-0-----------2-----------2----------0----------------------------------------------------------|
D|-2-----------2-----------3----------0----------------------------------------------------------|
A|-3-----------------------3----------2----------------------------------------------------------|
E|-------------------------1----------3----------------------------------------------------------|


   HE'S CLEARED ALL HIS THINGS AND HE'S, PUT THEM IN BOXES.  THINGS THAT REMIND HIM, LIFE HAS BEEN GOOD.

        Am              F                Am            F     C                       G

   

   TWENTY FIVE YEARS, HE'S WORKED AT THE PAPER.  A MANS HERE TO TAKE HIM DOWNSTA-A-A-A-A-I-I-R-S
   
   Am                      F                       C                         G


   AND I'M SO-O-O-O-ORRY MR. JONES..ITS TIME.

           C       Am        F      G   (START HERE AGAIN WITH THE C-Am-F-G)      


| /  slide up
| \  slide down
| h  hammer-on
| p  pull-off
| ~  vibrato
| +  harmonic
| x  Mute note
===============================================================================
Comments