Ben Folds Five - Eddie Walker Chords & Tabs

 

Eddie Walker Chords & Tabs

Ben Folds Five Chords & Tabs

Version: 1 Type: Bass Tab 0 ratings
1 star 2 stars 3 stars 4 stars 5 stars
comments

Eddie Walker Bass Tab

"Eddie Walker" by Ben Folds Five 
Tabbed by Tim Swan


first verse- the first two notes are the pickup. 
"we may pack a   little tight..."
G--------------------------------
D-------------6------------------
A-5-7---4-5-9---5-4-5-4-5-9\7----
E-----5-----------------------0--

second and third verse "this ones you ..."
G------------------------------------------------------------------
D---------------------------4-6-7-------------6--------------------
A-----4-5-/5-9-7-/7-5-4-5-7---------4-5-/55-9-----5-4-4-4-4-5-5-5-5
E5-\5-----------------------------5-------------5------------------ 

G--------------------------------------
D--------------------------------------
A-4-4-4-4-5-5--9-7--7h9r7h9r7h9r7-6-7--
E--------------------------------------

chorus- "Eddie walker"
G-------------------------------------------------------------
D-------4-4-2-2-------------------------------------0-2-------
A-4-4-4---------5-5-4-4-2-2-------------------0-2-4-----4-4-4-
E---------------------------5-5-4-4-3-2-0-2-3-----------------
[ Tab from: http://www.guitartabs.cc/tabs/b/ben_folds_five/eddie_walker_btab.html ]
G------------------------------------
D-4-4-2-2----------------------------
A---------5-5-4-4-2-2----------------
E---------------------5-5-4-4-3-2-0--

Verse four
G-------------------------7-6-----------------------------------
D-------------4-------6-9--------------6-9-6-77-----7------7----
A-5-/55-4-/4----789-8----------8--67-8----------7-----7-9----9--
E---------------------------------------------------------------

directly into this - "falling down" might be wrong
G-------------------------------------------
D-----------------3-2-1-0-------------------
A-5-5-5-5-5-5-5-5---------4-3-2-1-0---------
E-----------------------------------4-3-2-1-

chorus

bridge - just before the "whoa no no" - play three times
G-------------------------------
D-----4--------------7----------
A-------34-5-5-5-------567---7--
E-2-2------------5-5-------7----


into this
G---------------
D---------------
A-4-5---4-5--7--
E---------------

into this
"this whole stack"
G-------------------------
D------------6-/6---------
A---4-5-/5-9-------5-4-5--
E-5-----------------------

rock1813@hotmail.com comments and corrections
Comments