Ben Folds Five - Brick Chords & Tabs

 

Brick Chords & Tabs

Ben Folds Five Chords & Tabs

Version: 4 Type: Tab 0 ratings
1 star 2 stars 3 stars 4 stars 5 stars
comments

Brick Tab

the song is played with piano, but i think it sounds cool with guitar too.

[ Tab from: http://www.guitartabs.cc/tabs/b/ben_folds_five/brick_tab_ver_4.html ]
e|---2-----2---0------|---0-----0-------0---|
B|-------3---------3--|-------3---3---3-----|
G|-----2-----2--------|-----2-------2-------|    x3
D|--------------------|---------------------|
A|--------------------|---------------------|
E|--------------------|---------------------|

e|---2-----2---0------|------0-----0---0----|
B|-------3---------3--|----3-----3---3------|
G|-----2-----2--------|--1-----0------------|    
D|--------------------|---------------------|
A|--------------------|---------------------|
E|--------------------|---------------------|
Comments