Ben E King - Stand By Me Chords & Tabs

 

Stand By Me Chords & Tabs

Ben E King Chords & Tabs

Version: 3 Type: Tab 0 ratings
1 star 2 stars 3 stars 4 stars 5 stars
comments

Stand By Me Tab

----------------------------------------------------------------------
		        Stand By Me - Ben E. King
----------------------------------------------------------------------

Tabbed By: MJ
Song: Stand By Me
Artist: Ben E. King
Standard Tuning

Bass Line, can be played on Bass or guitar, i just wrote it for guitar.
[ Tab from: http://www.guitartabs.cc/tabs/b/ben_e_king/stand_by_me_tab_ver_3.html ]
e|-------------------------------------------------------------------|
B|-------------------------------------------------------------------|
G|-------------------------------------------------------------------|
D|-------------------------------------------------------------------|
A|-------------------------------------------------------------------|
E|--5--5--0--4--5--5--5--4--2--2--0--0--2--2--2--0-------------------|

e|-------------------------------|-----------------------------------|
B|-------------------------------|-----------------------------------|
G|-------------------------------|-----------------------------------|
D|-----------4--2--2--2----------|-----------------------------------|
A|--5--5--5----------------------|-------------(REPEAT THIS TWICE)---|
E|-----------------------4--5--5-|-0--4--5--5------------------------|

Repeat Throughout Song

You have to listen for timing, but it's not too hard to figure out.
If you can't figure it out then get the acapella version by rocapella and
listen to the guy who sings the bass line. It really isn't hard. It was the
first song i learned. Enjoy!
Comments