Belvedere - Two Minutes For Looking So Good Chords & Tabs

 

Two Minutes For Looking So Good Chords & Tabs

Belvedere Chords & Tabs

Version: 1 Type: Tab 0 ratings
1 star 2 stars 3 stars 4 stars 5 stars
comments

Two Minutes For Looking So Good Tab

   
Two Minutes for Looking So Good
Written by Belvedere
From the album "Fast forward eats the tape"

*Tuned down one whole step!*

Intro
Steve
---------------------------------
---------------------------------
-6-6-6---------------------------
-6-6-6-------7-7-7------2-2-2----
-4-4-4-------7-7-7------2-2-2----
-------------5-5-5------0-0-0----

Scott
-----------------------------
-17-----19--------17---------
----16---------------16-(16)-
-----------------------------
-----------------------------
-----------------------------
I think the third note (16) is a pinched 
harmonic, so it sounds like the 19th fret on high D.

Here we go!
0:14-0:18

Steve
----------------------------------
----------------------------5~----
-6-6-6-6-6-6-6-6-6-6-6------------
-6-7p6-4-6-7p6-4-6-7p6------------
-4-4-4-4-4-4-4-4-4-4-4------------
----------------------------------

Scott
----------------------------------
----------------------------9~----
----------------------------------
----------------------------------
----------------------------------
----------------------------------

VERSES
Steve
---------------------------|----------|--------------|
---------------------------|----------|--------------|
-6-6-6-6-6-6-6------4------|-9-9-8-8--|--------------|
-6-7p6-4-6-7p6----6---6----|-6-6------|-4-4-4-6-6-6--|
-4-4-4-4-4-4-4--7-------7--|-----6-6--|-4-4-4-6-6-6--|
----------------0----------|----------|-2-2-2-4-4-4--|
                                       PM~~~~~~~~~~~

Scott
---------------------------|------------|--------------|
--------------------4------|-12-12------|--------------|
-6-6-6-6-6-6-6----4---4----|------11-11-|--------------|
-6-7p6-4-6-7p6--2-------2--|-9--9-------|-4-4-4-6-6-6--|
-4-4-4-4-4-4-4--0----------|------9--9--|-4-4-4-6-6-6--|
---------------------------|------------|-2-2-2-4-4-4--|
                                          PM~~~~~~~~~~~

Pre-Chorus

Both play this twice
----------------------------------------------------------
----------------------------------------------------------
-6-----------------6-------------------------6------------
-6-----------------6-------------------------6----2-------
-4-----------------4-------------------------4----2-------
---5p4p0-5p4p0-0-0---5p4p0-5p4p0-5p4p0-5p4p0------0-------

then
Steve
------------------------------------
--------------------------/9-7---7--
-6-----------------------------8----
-6----------------------------------
-4-----------------4-7-7------------
---5p4p0-5p4p0-0-0-2-4-5------------
[ Tab from: http://www.guitartabs.cc/tabs/b/belvedere/two_minutes_for_looking_so_good_tab.html ]
Scott
------------------------------------
------------------------------------
-6------------------------/9-8---9--
-6-----------------------------9----
-4-----------------4-7-7------------
---5p4p0-5p4p0-0-0-2-4-5------------

CHORUS
Both
G       D             A 
Let me tell you about aggression

G       D             A        B 
Let me tell you things Don Cherry won't say

G       D             A 
And I'm scared of his obsession

G        D              E  F#/G  G
Meet you in the boards, and end your day....your day..

0:57-1:04)
Scott plays this nifty little riff

------7--4---------------------------------7---
-----------5-4/5-5-5-5-5-5-4h5p4-0-4-4h5/9-----
---6-------------------------------------------
-7---------------------------------------------
-0---------------------------------------------
-----------------------------------------------

------7-4--------------------
----------5-4h5-5-5-5-5------
---6-------------------------
-7---------------------------
-----------------------------
-----------------------------

1:20-1:22
Here we go again!

Steve
----------------------
----------------------
-6-6-6-6-6-6-6-6------
-6-7p6-4-6-7p6-4------
-4-4-4-4-4-4-4-4------
----------------------

Scott
----------------------
----------------------
--14-X-16-14-13-------
-----X----------------
--11-X-14-12-11-------
----------------------

2:07-end
Steve
---------------------------
---------------------------
---------------------------
-9-9-9-9-9-9-9-9-9-9-9-9---
-7-7-7-7-7-7-7-7-7-6-6-6---
-5-5-5-0-0-0-7-7-7-7-7-7---

Scott
2:10-2:13
---------------------------
---------------------------
------------------4--------
-7-7-7--2-2-2-----4--------
-7-7-7--2-2-2-----2--------
-5-5-5--0-0-0--------------
PM~~~~~~~~~~~     let ring

2:14-end
Scotty Solo! repeat til end
-----------------------------------------------------------
--------12------------12------------12------12-10-9-10-12--
----8-9----9-8----8-9----9-8----8-9---9-8------------------
-11-------------9-------------9----------------------------
-----------------------------------------------------------
-----------------------------------------------------------

Steve end
--------------------------
--------------------------
----------------6---------
----------------6---------
-4-7-7------4-7-4---------
-2-4-5------2-4-----------


Sweet, thats all!!!

Comments, Criticisms, Corrections, Requests..
jordanrocks99@hotmail.com

Jordan Legg 
Arnprior, Ontario
Comments