Belvedere - Threes A Crowd And Almost All Chords & Tabs

 

Threes A Crowd And Almost All Chords & Tabs

Belvedere Chords & Tabs

Version: 1 Type: Tab 0 ratings
1 star 2 stars 3 stars 4 stars 5 stars
comments

Threes A Crowd And Almost All Tab

go to www.belvederetabs.tk and check out the great tabs by the great band.  let me know
what you think.  cheers,
                                   joshua
perishsucks@hotmail.com

THREE'S A CROWD
As recorded by Belvedere
(From the 2004 Album FAST FORWARD EATS THE TAPE)

Transcribed by Joshua Gropp
 Words by Jason Sinclair Music by Belvedere
Arranged by Belvedere
 
More Belvedere Tabs 
 
[ Tab from: http://www.guitartabs.cc/tabs/b/belvedere/threes_a_crowd_and_almost_all_tab.html ]
INTRO/VERSE   
4/4 (Steve)
||------------------|-----------------|
||o-----------------|-----------------|
||------------------|-----------------|
||--------------2-6-|-6-6-6-6-4-4-4-4-|
||o---------2h4---0-|-0-0-0-0-2-2-2-2-|
||--0-0-2h4---------|-----------------|
| (Scott) silent for first bar first time
||------------------|-----------------|
||o---------------2-|-2-2-2-2-4-4-4-4-|
||------------------|-----------------|
||--------------2-2-|-2-2-2-2-4-4-4-4-|
||o---------2h4-----|-----------------|
||--0-0-2h4---------|-----------------|
 
 
|-------------------------------|----------------------------||
|-------------------------------|-----4h5p4-----------------o||
|-------------------------------|---4-------4---6-6-6-6-6----||
|-2-2-2-2-------------2-6-6-6-6-|-6-----------6-6-6-6-6-6----||
|-4-4-4-4---------2h4---0-0-0-0-|---------------4-4-4-4-4---o||
|---------0-0-2h4---------------|----------------------------||
|(scott plays this on 2nd verse)
|-------------------------------|-----2h4p2------------------||
|-5-5-5-5---------------2-2-2-2-|---4-------4---------------o||
|---------------------1---------|-4-----------4-6-6-6-6-6----||
|-6-6-6-6---------2h4---2-2-2-2-|---------------6-6-6-6-6----||
|-------------2h4---------------|---------------4-4-4-4-4---o||
|---------4-4-------------------|----------------------------||
 
CHORUS
|---------------------|-----------------|
|---------------------|-----------------|
|---------------------|-----------------|
|--6--6-4-4--6--6-2-2-|-6-6-4-4-6-6-2-2-|
|--0--0-0-0--0--0-0-0-|-4-4-4-4-4-4-4-4-|
|---------------------|-----------------|
|I'm celebrating...simply elated
|---------------------|-----------------|
|---------------------|-----------------|
|-11-11-9-9-11-11-8-8-|-9-9-8-8-9-9-6-6-|
|--7--7-7-7--7--7-7-7-|-6-6-6-6-6-6-6-6-|
|---------------------|-----------------|
|---------------------|-----------------|
 
 
  PM----------------------|
|-----------------|---------------------|
|-----------------|---------------------|
|-----------------|---------------------|
|-6-6-6-6-6-6-6-6-|-6-6-6-6--6--6--6--6-|
|-6-6-6-6-6-6-6-6-|-6-6-6-6--3--3--3--3-|
|-4-4-4-4-4-4-4-4-|-4-4-4-4-------------|
|
|-----------------|---------------------|
|-----------------|---------------------|
|-5-5-5-5-6-6-6-6-|-8-8-8-8-11-11-11-11-|
|-----------------|---------------------|
|-3-3-3-3-4-4-4-4-|-6-6-6-6--9--9--9--9-|
|-----------------|---------------------|
 
                                       2nd time to INTERLUDE        PM------|
|---------------------|-----------------:-----------------|----------------||
|---------------------|-----------------:-----------------|----------------||1st time to 
|---------------------|-----------------:-----------------|--------4-4-4-4-||2nd VERSE
|--6--6-4-4--6--6-2-2-|-9-9-9-9-9-9-9-9-:-6-6-6-----------|-6-6-6--4-4-4-4-||
|--0--0-0-0--0--0-0-0-|-6-6-6-6-6-6-6-6-:-4-4-4-------2---|-4-4-4--2-2-2-2-||
|---------------------|-----------------:-------0h2h4---0-|----------------||
|
|---------------------|-----------------:-----------------|----------------||
|---------------------|-----------------:-----------------|----------------||
|-11-11-9-9-11-11-8-8-|-8-8-8-8-8-8-8-8-:-9-9-9-----------|-9-9-9--8-8-8-8-||
|--7--7-7-7--7--7-7-7-|-6-6-6-6-6-6-6-6-:-----------------|----------------||
|---------------------|-----------------:-7-7-7-------2---|-7-7-7--6-6-6-6-||
|---------------------|-----------------:-------0h2h4---0-|----------------||
 
                                    PM----|
 INTERLUDE                        3x
||-----------------------||-----------------|
||o---------------------o||-----------------|
||-----------------------||---------4-4-4-4-|
||--6-6-6-6--------------||-6-6-6-6-4-4-4-4-|
||o-4-4-4-4--------2----o||-4-4-4-4-2-2-2-2-|
||-----------0h2h4---0---||-----------------|
|I promise not to care anymore
|                        3x
||-----------------------||-----------------|
||o---------------------o||-----------------|
||--9-9-9-9--------------||-9-9-9-9-8-8-8-8-|
||-----------------------||-----------------|
||o-7-7-7-7--------2----o||-7-7-7-7-6-6-6-6-|
||-----------0-2-4---0---||-----------------|
 
 
                                                         1.
||------------------|-----------------|-----------------|-------------------||
||o-----------------|-----------------|-----------------|------------------o||
||--4-4-4-4-4-4-4-6-|-2-2-2-2-2-----4-|-6-6-6-6-6-----4-|-6-6-6-6-6-6-6-6---||
||--4-4-4-4-4-4-4-6-|-2-2-2-2-2---6---|---6-6-6-6---6---|---6-6-6-6-6-6-6---||
||o-2-2-2-2-2-2-2-4-|-0-0-0-0-0-7-----|---4-4-4-4-7-----|---4-4-4-4-4-4-4--o||
||------------------|-----------------|-----------------|-------------------||
| I don't want attention just a light to fade
||------------------|-----------------|-----------------|-------------------||
||o-----------------|-----------------|-----------------|------------------o||
||--8-8-8-8-8-8-8-9-|-6-6-6-6-6-----8-|-9-6-6-6-6-----8-|-9-6-6-6-6-6-6-6---||
||------------------|-----------6-9---|---6-6-6-6-6-9---|---6-6-6-6-6-6-6---||
||o-6-6-6-6-6-6-6-7-|-4-4-4-4-4-------|---4-4-4-4-------|---4-4-4-4-4-4-4--o||
||------------------|-----------------|-----------------|-------------------||
 
a third guitar repeats this 
|----|---------------14-------16-------17-------16----|
|-14-|-(14)-17-14-14----14-14----14-14----14-14----14-|
|----|------------------------------------------------|
|----|------------------------------------------------|
|----|------------------------------------------------|
|----|------------------------------------------------|
 
                                                       12/8
                                              PM----|
|-----------------|-----------------|-----------------|------|
|-----------------|-----------------|-----------------|------|
|-4-4-4-4-4-----4-|-6-2-2-2-2-----4-|-6-6-6-6-4-4-4-4-|------|
|-4-4-4-4-4---6---|---2-2-2-2---6---|---6-6-6-4-4-4-4-|-2----|
|-2-2-2-2-2-7-----|---0-0-0-0-7-----|---4-4-4-2-2-2-2-|-2----|
|-----------------|-----------------|-----------------|-0----|
|don't pretend you care anymore...
|-----------------|-----------------|-----------------|------|
|-----------------|-----------------|-----------------|------|
|-8-8-8-8-8-----8-|-9-6-6-6-6-----8-|-9-9-9-9-8-8-8-8-|------|
|-----------6-9---|-----------6-9---|-----------------|-2----|
|-6-6-6-6-6-------|---4-4-4-4-------|---7-7-7-6-6-6-6-|-2----|
|-----------------|-----------------|-----------------|-0----|
 
BRIDGE (both guitars)
|-------------------------|-------------------------|
|-------------------------|-------------------------|
|-------------------------|-------------------------|
|-------------------------|-------------------------|
|-------------------------|-------------------------|
|-0-0-0-2-0-0-4-0-0-5-0-0-|-4-0-0-2-0-0-4-0-0-2-0-0-|
 
 
|-------------------------|---------------|
|-------------------------|---------------|
|-------------------------|---------------|
|-------------------------|----6----------|
|-------------------------|-4-----7---6---|
|-0-0-0-2-0-0-4-0-0-5-0-0-|---------4---7-|
 
 (Steve)
|---------------------------|---------------------------|
|---------------------------|---------------------------|
|---------------------------|---------------------------|
|---------------------------|---------------------------|
|---------------------------|---------------------------|
|-0-0-0-2-0-0--4-0-0--5-0-0-|--4-0-0-2-0-0--4-0-0-2-0-0-|
|(Scott)
|---------------------------|---------------------------|
|---------------------------|---------------------------|
|---------------------------|---------------------------|
|---------------------------|---------------------------|
|---------------------------|---------------------------|
|-7-7-7-9-7-7-11-7-7-12-7-7-|-11-7-7-9-7-7-11-7-7-9-7-7-|
 
 
|--------------------------|---------------|
|--------------------------|---------------|
|--------------------------|---------------|
|--------------------------|---6-----6-----|
|--------------------------|-4---7-----7---|
|-0-0-0-2-0-0--4-0-0-7-0-0-|-------4-------|
|
|--------------------------|---------------|
|--------------------------|---------------|
|--------------------------|---------------|
|--------------------------|---6-----------|
|--------------------9-----|-4---7---6-----|
|-7-7-7-9-7-7-11-7-7---7-7-|-------4---7---|
 
 
|-------------------------|-------------------------|--------------------------|
|-------------------------|-------------------------|--------------------------|
|-------------------------|-------------------------|--------------------------|
|-------------------------|-------------------------|--------------------------|
|-------------------------|-------------------------|--------------------------|
|-0-0-0-2-0-0-4-0-0-5-0-0-|-4-0-0-2-0-0-4-0-0-2-0-0-|-0-0-0-2-0-0-4-0-0-7-0-0--|
 
 
|-------------------|-------------------|-------------------|---------||
|-------------------|-------------------|-------------------|---------||
|-------------------|-------------------|-------------------|---------||
|----6--------------|-------7--5-----6--|----6--------------|-7--7--7-||
|-4-----7-----6-----|----4--------3-----|-4-----7-----6-----|-7--7--7-||
|----------4-----7--|-5-----------------|----------4-----7--|-5--5--5-||
 
 
 4/4
|------------------|----------------------|
|------------------|----------------------|
|------------------|----------------------|
|-6-6-6-6-4-4-4--4-|--2-2-2-------------2-|
|-0-0-0-0-2-2-2--2-|--4-4-4---------2h4---|
|------------------|--------0-0-2h4-------|
|
|------------------|----------------------|
|------------------|----------------------|
|-6-6-6-9-8-8-8-11-|-13-9-9---------------|
|------------------|--------------------2-|
|-4-4-4-7-6-6-6--9-|-11-7-7---------2h4---|
|------------------|--------0-0-2h4-------|
 
 
|-----------------|-------------------------|
|-----------------|-------------------------|
|-----------------|-------------------------|
|-6-6-6-6-4-4-4-4-|--2--2--2-------------2--|
|-0-0-0-0-2-2-2-2-|--4--4--4---------2h4----|
|-----------------|----------0-0-2h4--------|
|
|-----------------|-------------------------|
|-----------------|-------------------------|
|-6-6-6-9-8-8-8-8-|-18-13-13----------------|
|-----------------|----------------------2--|
|-4-4-4-7-6-6-6-6-|-16-11-11---------2h4----|
|-----------------|----------0-0-2h4--------|
 
 
                                                       PM-------------|
|---------------------|---------------------|-----------------------------|
|---------------------|---------------------|-----------------------------|
|---------------------|---------------------|-----------------------------|
|-11-11-11-11---------|-6-6-6-------------2-|-6-6-6-6--7--7--7--6---4--6--|
|--9--9--9--9-7-7-7-7-|-4-4-4---------2h4---|-0-0-0-0--7--7--7--6---4--6--|
|-------------5-5-5-5-|-------0-0-2h4-------|----------5--5--5--4---2--4--|
|
|---------------------|---------------------|-----------------------------|
|---------------------|---------------------|-----------------------------|
|-11-11-11-11-6-6-6-6-|-9-9-9-------------1-|-6-6-6-6-14-14-14-13--11-13--|
|---------------------|---------------2h4---|-----------------------------|
|--9--9--9--9-4-4-4-4-|-7-7-7-----2h4-------|-4-4-4-4-12-12-12-11---9-11--|
|---------------------|-------4-4-----------|-----------------------------|
 
 
||------------------------------------------------------------------|
||o-----------------------------------------------------------------|
||------------------------------------------------------------------|
||--2-2-2--2-2-2--2-2-2--2-2-2--2-2-2--2-2-2---7--7--7---6---4---6--|
||o-2-2-2--2-2-2--2-2-2--2-2-2--2-2-2--2-2-2---7--7--7---6---4---6--|
||--0-0-0--0-0-0--0-0-0--0-0-0--0-0-0--0-0-0---5--5--5---4---2---4--|
|
||------------------------------------------------------------------|
||o-----------------------------------------------------------------|
||--9-9-9--9-9-9--9-9-9--9-9-9--9-9-9--9-9-9--18-18-18--16--14--16--|
||------------------------------------------------------------------|
||o-7-7-7--7-7-7--7-7-7--7-7-7--7-7-7--7-7-7--16-16-16--14--12--14--|
||------------------------------------------------------------------|
 
 
|------------------------------------------------------------------------------------||
|-----------------------------------------------------------------------------------o||
|------------------------------------------------------------------------------------||
|--2--2--2---2--2--2---2--2--2---2--2--2---2--2--2---2--2--2---7--7--7---6---4---6---||
|--2--2--2---2--2--2---2--2--2---2--2--2---2--2--2---2--2--2---7--7--7---6---4---6--o||
|--0--0--0---0--0--0---0--0--0---0--0--0---0--0--0---0--0--0---5--5--5---4---2---4---||
|
|------------------------------------------------------------------------------------||
|-----------------------------------------------------------------------------------o||
|-13-13-13--13-13-13--13-13-13--13-13-13--13-13-13--13-13-13--14-14-14--13--11--13---||
|------------------------------------------------------------------------------------||
|-11-11-11--11-11-11--11-11-11--11-11-11--11-11-11--11-11-11--12-12-12--11---9--11--o||
|------------------------------------------------------------------------------------||
 
 
  PM--|
|--------*|
|--------*|
|--------*|
|-2-2-2--*|
|-2-2-2--*|
|-0-0-0--*|
|
| PM--|
|--------*|
|--------*|
|--------*|
|-2-2-2--*|
|-2-2-2--*|
|-0-0-0--*|
Comments