Belvedere - Subhuman Nature Chords & Tabs

 

Subhuman Nature Chords & Tabs

Belvedere Chords & Tabs

Version: 1 Type: Tab 0 ratings
1 star 2 stars 3 stars 4 stars 5 stars
comments

Subhuman Nature Tab

   
-------------------------------------------------------------------------------
		     Subhuman Nature - Belvedere
-------------------------------------------------------------------------------

Tuning:eBGDAD

Intro
0:03
e|----------------------1010101010101010-----------|
B|--------------88-9-8---8-8-8-8-8-8-8-8--88-9-8---|
G|--------------88-8-8---8-8-8-8-8-8-8-8--88-8-8---|
D|-11-11111111-------------------------------------|
A|-11-11111111-------------------------------------|
D|-11-11111111-------------------------------------|
PM -- ---------------------------------------------|

e|-------------------1010101010101010-----------|
B|-----------88-9-8---8-8-8-8-8-8-8-8--88-9-8---|
G|-----------88-8-8---8-8-8-8-8-8-8-8--88-8-8---|
D|-11111111-------------------------------------|
A|-11111111-------------------------------------|
D|-11111111-------------------------------------|
PM ---------------------------------------------|

e|-------------------1010101010101010----------|
B|-----------88-9-8---8-8-8-8-8-8-8-8--88-9-8--|
G|-----------88-8-8---8-8-8-8-8-8-8-8--88-8-8--|
D|-11-1-1-1------------------------------------|
A|-11-1-1-1------------------------------------|
D|-11-1-1-1------------------------------------|
PM -- - - -

Verse
0:15
e|----------------------------------|
B|----------------------------------|
G|----------------------------------|
D|-555-555-------------888-777------|
A|-333-333-555-666-888-555-555-888--|
D|---------555-666-888---------777--|

e|-------------------------------------|
B|-------------------------------------|
G|-------------------------777-101010--|
D|-555-555-------------888-------------|
A|-333-333-555-666-888-555-555--8-8-8--|
D|---------555-666-888-----------------|

e|----------------------------------|
B|----------------------------------|
G|----------------------------------|
D|-888-888-888-888-555-555----------|
A|-666-666-555-555-333-333-666-666--|
D|-------------------------666-666--|

Pre-Chorus
0:27
e|-----------------------------10-----11-----13-----------|
B|-13-----13-----13-----13---------------------11-12-13\--|
G|---11-12--11-12--11-12--11-12--11-12--11-12-------------|
D|--------------------------------------------------------|
A|--------------------------------------------------------|
D|--------------------------------------------------------|

Chorus
0:31
e|--------------------------------------------------------|
B|--------------------------------------------------------|
G|-/121212-/121212-/121212-/121212-151515-131313-666-777--|
D|--------------------------------------------------------|
A|-/101010-/101010-/101010-/101010-131313-111111-444-555--|
D|--------------------------------------------------------|

e|-------------------------------------------------------------|
B|-------------------------------------------------------------|
G|-/121212-/121212-/121212-/121212-151515-131313-161616-1616\--|
D|-------------------------------------------------------------|
A|-/101010-/101010-/101010-/101010-131313-111111-141414-1414\--|
D|-------------------------------------------------------------|
[ Tab from: http://www.guitartabs.cc/tabs/b/belvedere/subhuman_nature_tab.html ]
0:43
e|-------------------1010101010101010-----------|
B|-----------88-9-8---8-8-8-8-8-8-8-8--88-9-8---|
G|-----------88-8-8---8-8-8-8-8-8-8-8--88-8-8---|
D|-11111111-------------------------------------|
A|-11111111-------------------------------------|
D|-11111111-------------------------------------|
PM ---------------------------------------------|

Repeat Verse.
Repeat Pre-Chorus.

Bridge
1:03
e|-----------------------------------------------------|
B|-----------------------------------------------------|
G|-88-10-1212------------------88-10-1212--------------|
D|-88-10-1212-8-1010-8-1010-8--88-10-1212-8-1010-8-10--|
A|-66--8-1010-8-1010-8-1010-8--66--8-1010-8-1010-8-10--|
D|------------8-1010-8-1010-8-------------8-1010-8-10--|

Repeat Chorus.

1:16
e|---------------------------------------------|
B|---------------------------------------------|
G|-8-10-555-555-777-777-888-888-121212-121212--|
D|---------------------------------------------|
A|-6--8-333-333-555-555-666-666-101010-101010--|
D|---------------------------------------------|

e|---------------------------------|
B|---------------------------------|
G|-555-555-777-777-888-888-333-333-|
D|---------------------------------|
A|-333-333-555-555-666-666-111-111-|
D|---------------------------------|

e|---------------------------------------------|
B|---------------------------------------------|
G|-555-555-777-777-888-888-777-666-555-555-----|
D|-----------------------------------------3~--|
A|-333-333-555-555-666-666-555-444-333-333-3~--|
D|-----------------------------------------3~--|

Repeat Pre-Chorus.
Repeat Bridge.
Repeat Chorus.

1:47
e|---------13----15----13------------|
B|-----16----15----1613--16151615----|
G|-1213--13----15----------------15--|
D|-----------------------------------|
A|-----------------------------------|
D|-----------------------------------| x3

e|---------13----15~-16~-18~---|
B|-----16----15----------------|
G|-1213--13----15--------------|
D|-----------------------------|
A|-----------------------------|
D|-----------------------------|

1:54
e|-----------------------------------------------|
B|------|----------------------------------------|
G|-8-10-|-555-555-777-777-888-888-121212-121212--|
D|------|----------------------------------------|
A|-6--8-|-333-333-555-555-666-666-101010-101010--|
D|-----------------------------------------------|

e|---------------------------------|
B|---------------------------------|
G|-555-555-777-777-888-888-333-333-|
D|---------------------------------|
A|-333-333-555-555-666-666-111-111-|
D|---------------------------------|

2:03
e|-------------------------------------8---------------|
B|-8-9-11----11------11----11----11--8---11-9-8--------|
G|-------8--8--8--8-7---7-7---7-8---8-----------8-7----|
D|-------------------------------------------------5\--|
A|-----------------------------------------------------|
D|-----------------------------------------------------|

e|--------------------------------------------T-11P10--11-----------|
B|----------------------------------T-----T-T11------13--13P1013~---|
G|---5----7-----8---10--T-T-T-T-T-T10-T-T1012-----------------------|
D|-/6--6-8--8-10--10---101213101213--1213---------------------------|
A|------------------------------------------------------------------|
D|------------------------------------------------------------------|

| /  slide up
| \  slide down
| h  hammer-on
| p  pull-off
| ~  vibrato
| +  harmonic
| x  Mute note
===============================================================================
Comments