Beloved - Death To Traitors Chords & Tabs

 

Death To Traitors Chords & Tabs

Beloved Chords & Tabs

Version: 1 Type: Tab 0 ratings
1 star 2 stars 3 stars 4 stars 5 stars
comments

Death To Traitors Tab

Tuning: Standard

... = palm mute
h = hammer on
p = pull off
/ = slide up or down

Hi this is a first time tab for me so dont expect it to all be perfect, i would 
some feedback if possible. thanks. Oh and any talented tabbers out there please tab out some 
beloved songs, they deserve to be played!

Intro Guitar 1
e|---------------------------------------------------------------------------|
B|---7787-5/8-77787-5/8-77787-5/8-77787-5/8---(X4)---------------------------|
G|---7777-----77777-----77777-----77777--------------------------------------|
D|---------------------------------------------------------------------------|
A|---------------------------------------------------------------------------|
E|---------------------------------------------------------------------------|
     ....     .....     .....     .....
Intro Guitar 2 (comes in after 1 of above)
e|----------------------------------------------------------------------------|
B|----------------------------------------------------------------------------|
G|----------------------------------------------------------------------------|
D|---2-------7------4---------------------------------------------------------|
A|---2-(X16)-7-(X8)-4-(X8)----------------------------------------------------|
E|---0-------5------2---------------------------------------------------------|
     .       .      .
Intro Part 2 Guitar 1
e|----------------------------------------------------------------------------|
B|----------------------------------------------------------------------------|
G|-------10-10/---------------------------------------------------------------|
D|---7-7--x--x--(X3)-7-7--777-------------------------------------------------|
A|---7-7--8--8/------7-7--777-------------------------------------------------|
E|---5-5-------------5-5--555-------------------------------------------------|
Intro Part 2 Guitar 2
e|---------------------------------------------------------------------------|
B|---------------------------------------------------------------------------|
G|--------7/-7/--------------------------------------------------------------|
D|---7-7--x--x--(X3)-7-7--777------------------------------------------------|
A|---7-7--5/-5/------7-7--777------------------------------------------------|
E|---5-5-------------5-5--555------------------------------------------------|

Verse(Slow Part - (guitar 1 and guitar 2 plays similiar but lower)
e|-----------12---------------------------------------------------------------|
B|-----------------11---11----------------10---10---10------------------------|
G|----9-10-9--9--10---10----9-10-9-10--10---10---10----(X4)-------------------|
D|----0--0-0-----0-----0----0--0-0--0--0---0------0---------------------------|
A|----------------------------------------------------------------------------|
E|----------------------------------------------------------------------------|
Verse (Heavy)both guitars
e|----------------------------------------------------------------------------|
B|----------------------------------------------------------------------------|
G|----------------------------------------------------------------------------|
D|----------5/6----------------5/6--------------------------------------------|
A|----0-0-0-5/6-0-0--000-0-0-0-5/6-000-111--(slight pause)--------------------|
E|----0-0-0-3/4-0-0--000-0-0-0-3/4-000-111------------------------------------|
      . . .     . .  ... . . .     ... ...i
Interlude - Guitar 1 only
e|---------------------------------------------------------------------------|
B|---------------------------------------------------------------------------|
G|----7----------------------------------------------------------------------|
D|----x--(X16 fast or can just do X8 slower)---------------------------------|
A|----5----------------------------------------------------------------------|
E|---------------------------------------------------------------------------|
   -Guitar 1 continued....
e|----------------------------------------------------------------|
B|----------------------------------------------------------------|
G|-----------1212-1414---------1212-1414-------------1414-1717----|
D|----3-------x-x--x-x--2-------x-x--x-x--3--3--------x-x--x-x----|
A|----3-(X4)-1010-1212--2-(x4)-1010-1212--3--3-(x10)-1212-1515----|
E|----1-----------------0-----------------1--1--------------------|
                                             .
Repeat 4 times fast then 4 times slow(during slow he doesnt palm mute)

    - Guitar 2
e|---------------------------------------------------------------------|
B|---------------------------------------------------------------------|
G|--10--------9-------14------12------1414-1717------------------------|
D|---x--------x--------x-(X8)--x-(X4)--x-x--x-x------------------------|
A|---8-(X8)---7-(x8)--12------10------1212--1515-----------------------|
E|---------------------------------------------------------------------|

 Repeat 4 times fast then 4 times slow

 Interlude 2 - Guitar 1 only
e|-----------------------------------------------------------------------------|
B|-----------------------------------------------------------------------------|
G|---------101010--------101010-3--101010-5/-----------------------------------|
D|-----0----x-x-x---0-----x-x-x-x---x-x-x-x---5-7------------------------------|
A|-----0----8-8-8---0-----8-8-8-5---8-8-8-3/--5-7------------------------------|
E|-----0------------0-------------------------3-5------------------------------|
 Guitar 1 continues the same....(X4)

 Interlude 2 - Guitar 2 comes in....
[ Tab from: http://www.guitartabs.cc/tabs/b/beloved/death_to_traitors_tab.html ]
e|----------------------------------------------------------------------------|
B|----------------------------------------------------------------------------|
G|---------101010--------101010-3--101010-5/----------------------------------|
D|-----0----x-x-x---0-----x-x-x-x---x-x-x-x---5-7-----------------------------|
A|-----0----8-8-8---0-----8-8-8-5---8-8-8-3/--5-7--(X2)-----------------------|
E|-----0------------0-------------------------3-5-----------------------------|then
e|----------------------------------------------------------------------------|
B|----------------------------------------------------------------------------|
G|---------121212--------121212-3--121212-5/----------------------------------|
D|-----0----x-x-x---0-----x-x-x-x---x-x-x-x---5-7-----------------------------|
A|-----0---101010---0----101010-5--101010-3/--5-7--(X2)-----------------------|
E|-----0------------0-------------------------3-5-----------------------------|

Next Part Guitar 1 and 2

e|----------------------------------------------------------------------------|
B|----------------------------------------------------------------------------|
G|------------------------------------10101010--------------------------------|
D|------------------------------------10101010--------------------------------|
A|--000--000--000----000--000--000-----8-8-8-8--------------------------------|
E|--000--000--000----000--000--000-----8-8-8-8--------------------------------|
    ...  ...  ...    ...  ...  ...
Interlude 1  Guitar 1
e|----------------------------------------------------------------|
B|----------------------------------------------------------------|
G|-----------1212-1414---------1212-1414-------------1414-1717----|
D|----3-------x-x--x-x--2-------x-x--x-x--3--3--------x-x--x-x----|
A|----3-(X4)-1010-1212--2-(x4)-1010-1212--3--3-(x10)-1212-1515----|
E|----1-----------------0-----------------1--1--------------------|
                                             .
  (X2 fast and X2 Slow- on slow part dont palm mute)

    - Guitar 2
e|--------------------------------------------------------------------------|
B|--------------------------------------------------------------------------|
G|---10------9--------14------12------1414-1717-----------------------------|
D|----x------x-(X8)----x-(X8)---x-(X4)-x-x--x-x-----------------------------|
A|----8-(X8)-7--------12------10------1212-1515-----------------------------|
E|--------------------------------------------------------------------------|
   (X2 fast and X2 slow)

Bridge Guitar 1 (only guitar 1 for 1 bar)
e|---------------------------------------------------------------------------|
B|---------------------------------------------------------------------------|
G|---------------------------------------------------------------------------|
D|--------3--7---3--5---3/2-----(X7)-----------------------------------------|
A|----000------------------3/7-----------------------------------------------|
E|----000--0--00--0--0-------------------------------------------------------|
      ...  .  ..  .  .

Bridge Guitar 1 only
e|----------------------------------------------------------------------------|
B|----------------------------------------------------------------------------|
G|---------------------10101010-----------------------------------------------|
D|--------3--7---3--5---x-x-x-x---7-------------------------------------------|
A|----000---------------8-8-8-8---7-------------------------------------------|
E|----000--0--00--0--0------------5-------------------------------------------|
      ...  .  ..  .  .
  Guitar 1 carries on X4

Bridge Guitar 2 (Comes in after 1)
e|---------------------------------------------------------------------------|
B|---------------------------------------------------------------------------|
G|-----------------10101010------------------------------------10101010------|
D|-----------------10101010-(X1)-------------------------------10101010-(X2)-|
A|--000--000--000---8-8-8-8------000--000--000--000--000--000---8-8-8-8------|
E|--000--000--000---8-8-8-8------000--000--000--000--000--000---8-8-8-8------|
    ...  ...  ...                ...  ...  ...  ...  ...  ...
e|------------------------------------------------------|
B|------------------------------------------------------|
G|-------------------------------10101010---------------|
D|-------------------------------10101010-(X3)--7-------|
A|--000--000--000--000-000-000----8-8-8-8-------7-------|
E|--000--000--000--000-000-000----8-8-8-8-------5-------|
    ...  ...  ...  ... ... ...
Post Bridge Guitar 1
e|---------------------------------------------------------------------------|
B|---------------------------------------------------------------------------|
G|---------------------------------------------------------------------------|
D|---3-33-5-55-7-77-7-7-7-7-77-8-88-10-1010-10-101010------------------------|
A|---1-11-3-33-5-55-5-5-5-5-55-8-88-10-1010-10-101010--(X4)------------------|
E|---1-11-3-33-5-55-5-5-5-5-55-5-55--8--8-8--8--8-8-8------------------------|
Post Bridge Guitar 2
e|---------------------------------------------------------------------------|
B|---------------------------------------------------------------------------|
G|--10-1010-10/12-1212-12/14-1414-14/10-12-14-1414-14/15-1515-15/17-1717-----|
D|---x--x-x--x-----x-x--x--x--x-x--x--x--x--x--x-x--x--x--x-x--x--x--x-x-----|
A|---8--8-8--8/10-1010-10/12-1212-12/-8-10-12-1212-12/13-1313-13/15-1515-----|
E|---------------------------------------------------------------------------|

e|----------------------------------------------------------------------------|
B|----------------------------------------------------------------------------|
G|---17/10-12-------10--------------------------------------------------------|
D|----x--x--x--(X4)--x--------------------------------------------------------|
A|---15/-8-10--------8--------------------------------------------------------|
E|----------------------------------------------------------------------------|

OUTRO!! Guitar 1
im working on it, cant quite get it....
e|----------------------------------------------------------------------------------------------|
B|----------------------------------------------------------------------------------------------|
G|----------------------------------------------------------------------------------------------|
D|----------------------------------------------------------------------------------------------|
A|----------------------------------------------------------------------------------------------|
E|---------------------------------------------------------------------------|OUTRO!! Guitar 2--|
e|----------------------------------------------------------------------------------------------|
B|----------------------------------------------------------------------------------------------|
G|----10/17----------------17/10----------------------------------------------------------------|
D|-----x--x-----------------x--x----------------------------------------------------------------|
A|-----8/15----------------15/-8----------------------------------------------------------------|
E|----------------------------------------------------------------------------------------------|

carry on till the end and thats it...6 and 1/2 minutes worth.
Comments