Belly - Superconnected Chords & Tabs

 

Superconnected Chords & Tabs

Belly Chords & Tabs

Version: 1 Type: Tab 0 ratings
1 star 2 stars 3 stars 4 stars 5 stars
comments

Superconnected Tab

   
#----------------------------------PLEASE NOTE---------------------------------#
#This file is the author's own work and represents their interpretation of the #
#song. You may only use this file for private study, scholarship, or research. #
#------------------------------------------------------------------------------##
From: L'Etat Morbide 

Here is one of my favourite song from Belly's last lp (which is a really 
good surprise to be honest ... this lp is excellent)

	SUPERCONNECTED (from BELLY - album : King (5th track))

		tabulated by O.GOYET (L'etat morbide)
				-oOo-
note : the numbers put into brackets near the chords correspond to the length
of the chord)

Intro
- Bass (chorus)
  ------------------------------------------------------------------
  -------------------2----------------------------------------------
  ---2-----------2---1---------------2-----------2---1--------------
  -2-----------2---22--------------2-----------2---22---------------
   +   .   .   .   +   .   .   .   +   .   .   .   +   .   .   .   >	

  -----------------------------------------------------------------
  -----------------------------------------------------------------
  ---2------------------2-----1---------2----------------2----1----
  -2-----------------2------22--------2-------------2-------22-----
       On your third broken window        Your hair full of glass
  ------------------------------------------------------------------------
  ------------------------------------------------------------------4-----
  ---2----------------------2----1---------2------------------------4-----
  -2---------------------2-----22--------2--------------------------2-----
       Throw your close in the hallway       Just one sheet on your back

intro Start 
(with two guitars: one disorted simply(GTR1), the other distorted but 
      with a deep chorus(GTR2))
THEME
E------------------------------------------------------------------------------
B------------------------------------------------------------------------------
G------------------------------------------------------------------------------
D-------2---1-2-2-------2---1-2-2-------2---1-2-2-------2---1-2-2--------------
A-----------------0---------------0-2-------------2---2---2--------------------
E-7/2--------------------------------------------------------------------------
    +   .   .   .   +   .   .   .   +   .   .   .   +   .   .   .   >	

(second time THEME with bass below)
    +   .   .   .   +   .   .   .   +   .   .   .   +   .   .   .   >	
bass
G------------------------------------------------------------------------------
D-------4---4-1---1-----1---1-1-------------------4-----4---4---4--------------
A---------------2---------------2-4-----4---4---4------------------------------
E---2---------------------------------------------------------2----------------
end of intro start

start part 1 of the song(bass following the chords and THEME repeated)
F#(1)          A(1)      B(2)
    So you're super connected now
F#(1)         A(1)       B(2)
    All the freaks gather   round
F#(1)         A(1)         B(2)
    And the crowds in your bedroom waits For a 
F#(1)         A(1)          B(2)
    piece of your personal space

chorus
------
E(1)	     B(1)           A(2)
   Are there Heartstring connected
E(1)        B(1)           A(2)
   To the wings you've got slapped on your back
E(1)        B(1)        A(2)                        E(2)   
   Better climb in the window cause I'm closing the door
------
end chorus

break :	repeat start intro only
[ Tab from: http://www.guitartabs.cc/tabs/b/belly/superconnected_tab.html ]
start part 2 (GTR 1 and 2 as follow, bass inspired with guitars THEME in start 
------------ intro)
    F#(1)           A(1)            B(2)
GTR 1
E--------------------------------------------------------------------
B--------------------------------------------------------------------
G--------------------------------------------------------------------
D--------------------------------------------------------------------
A-------------------4-----------0-2----------------------------------
E---2-------------------------------------------5-2---------------2--
    +   .   .   .   +   .   .   .   +   .   .   .   +   .   .   .   >	
GTR 2
E-------------------------------------------------------------------|
B-------------------------------------------------------------------|
G-------------------------------------------------------------------|
D-------------------------------------------------------------------|
A---0-0-0-0-0-0-0-0-0-0-0-0-0-0-0-0-2-2-2-2-2-2-2-2-2-2-2-2-2-2-2-2-|
E-------------------------------------------------------------------|
	    On your third   broken  win   - dow

    F#(1)           A(1)            B(2)
GTR 1
E--------------------------------------------------------------------
B--------------------------------------------------------------------
G-----------------------------------------------------------4-1------
D-----------------2-----------------2-----------1-2-------------2----
A---------------4---4------------------------------------------------
E---2----------------------------------------------------------------
    +   .   .   .   +   .   .   .   +   .   .   .   +   .   .   .   >	
GTR 2
E-------------------------------------------------------------------|
B-------------------------------------------------------------------|
G-------------------------------------------------------------------|
D-------------------------------------------------------------------|
A---0-0-0-0-0-0-0-0-0-0-0-0-0-0-0-0-2-2-2-2-2-2-2-2-2-2-2-2-2-2-2-2-|
E-------------------------------------------------------------------|
           With your hair   full of     glass

    F#(1)           A(1)            B(2)
GTR 1
E--------------------------------------------------------------------
B--------------------------------------------------------------------
G--------------------------------------------------------------------
D--------------------------------------------------------------------
A-------------------4-----------0-2-------------4-2---------------2--
E---2----------------------------------------------------------------
    +   .   .   .   +   .   .   .   +   .   .   .   +   .   .   .   >	
GTR 2
E-------------------------------------------------------------------|
B-------------------------------------------------------------------|
G-------------------------------------------------------------------|
D-------------------------------------------------------------------|
A---0-0-0-0-0-0-0-0-0-0-0-0-0-0-0-0-2-2-2-2-2-2-2-2-2-2-2-2-2-2-2-2-|
E-------------------------------------------------------------------|
           Saw your clothes  in the hall -  way

    F#(1)           A(1)            B(2)
GTR 1
E--------------------------------------------------------------------
B--------------------------------------------------------------------
G---------------------------------------------------5----------------
D-----------------2-------------2-4---------------4------------------
A---4-----------4----------------------------------------------------
E--------------------------------------------------------------------
    +   .   .   .   +   .   .   .   +   .   .   .   +   .   .   .   >	
GTR 2
E-------------------------------------------------------------------|
B-------------------------------------------------------------------|
G-------------------------------------------------------------------|
D-------------------------------------------------------------------|
A---0-0-0-0-0-0-0-0-0-0-0-0-0-0-0-0-2-2-2-2-2-2-2-2-2-2-2-2-2-2-2-2-|
E-------------------------------------------------------------------|
             Just a curtain on your     back        i laugh

	(chorus)

A(2)                  B(2)
Now I'm spinning on a dime (twice)
A(2)                  B(2)    
Now I'm spinning on a dime 
     D(2)          A(2)  (note : here A = 042220))
like you claim to do
     D(2)         A(2)   (note : here A = (042220) too)
like you claim to do
      F#m(2)          F#m(2)
right now        like now
E(1)         B(1)          A(2)
  Are there Heartstring connected
E(1)      B(1)          A(2)
  to the poison coming out of your mouth
E(1)      B(1)     A(2) 
  are you super connected
E(1)      B(1)     A(2) 
  are you super connected now
E(1) B(1)           A(2) 
  I'm spinning on a dime
E(1)          B(1)          A(2) 
  Throw your clothes in the hallway
E(1)                  F#(.....) 
  Now I'm closing the door


Good luck

				Oliver

+--+ +--+ +--+ +--+ +--+ +--+ +--+ +--+ +--+ +--+ +--+ +--+ +--+ +--+ +--+ +--+
  ()     |  )  __| __ __|  \ __ __|    \  |   _ \   _ \  _ ) _ _|  _ \   __|
  /\     |     _|     |   _ \   |     |\/ |  (   |    /  _ \   |   |  |  _| 
 (  )   ___|  ___|   _| _/  _\ _|    _|  _| \___/  _|_\ ___/ ___| ___/  ___|
^\\//^                             - - o O o - -                             
 //\\			UsErnAmE : goyet@coventry.ac.uk
 (  ) 'To rain like an english summer, Inner notes from a distant song ...
  \/	 Stepping out from a back drop poster, Wishing life wouldn't be so long'
  ()			Fade to Grey (Devenir Gris) - VISAGE
+--+ +--+ +--+ +--+ +--+ +--+ +--+ +--+ +--+ +--+ +--+ +--+ +--+ +--+ +--+ +--+ 


Comments