Belle And Sebastian - Seeing Other People Chords & Tabs

 

Seeing Other People Chords & Tabs

Belle And Sebastian Chords & Tabs

Version: 1 Type: Tab 0 ratings
1 star 2 stars 3 stars 4 stars 5 stars
comments

Seeing Other People Tab


  	  
      
      
From Guitar Tab Universe - www.guitartabs.cc    
 Belle & Sebastian
seeing other people
this is the lead piano intro/fill part

E-----------------------------------
B-----------------------------------
G---------------------------1-------
D-----3-----------1-----2-4---4-2-1-
A-4-6---6-4-3-2-4---4-2-------------
E-----------------------------------
[ Tab from: http://www.guitartabs.cc/tabs/b/belle_and_sebastian/seeing_other_people_tab.html ]
E---------------------------------------------------------------
B-------------------------------------1-----1-2-4-2-1-2---------
G---------------------------1-----1-3---3-1-------------3-3-1---
D-----3-----------1-----2-4---4-2-------------------4-----------
A-4-6---6-4-3-2-4---4-2-----------------------------------------
E---------------------------------------------------------------

E---------------------------------
B-2-------------------------------
G---3-3-1---4-1-1-----4-1-1-------
D---------4-------4-2-------4-2-1-
A---------------------------------
E---------------------------------

E-------------------------
B-------------------------
G-------------------------
D-----3-----------1-------
A-4-6---6-4-3-2-4---4-2-4-
E-------------------------

***tabbed by ryan holyoak***
Comments