Belle And Sebastian - Like Dylan In The Movies Chords & Tabs

 

Like Dylan In The Movies Chords & Tabs

Belle And Sebastian Chords & Tabs

Version: 1 Type: Bass Tab 0 ratings
1 star 2 stars 3 stars 4 stars 5 stars
comments

Like Dylan In The Movies Bass Tab

   
Song: Lyke Dylan In The Movies
Artist: Belle And Sebastian
Album: If You're Feeling Sinister


Tabbed by Alex Bazan (abazan@filnet.es)

Bass - Standard Tuning (E,A,D,G)


Verse:
G|-----------------------------|
D|-----------------------------|
A|--7--7-7-7-4--------------4--|
E|-------------7-5--5-5-5-7----|


Chorus:
G|---------------------|---------------------|---------------------|---------------------|
D|---------------------|---------------------|---------------------|---------------------|
A|--4-4-4-4-4-4-4-4-4--|--4-4-4-4-4-4-4-4-4--|---------------------|---------------------|
E|---------------------|---------------------|--4-4-4-4-4-4-4-4-4--|--4-4-4-4-4-4-4-4-4--|

G|---------------------|---------------------|---------------------|---------------------|
D|---------------------|---------------------|---------------------|---------------------|
A|---------------------|---------------------|--0-0-0-0-0-0-0-0-0--|--0-0-0-0-0-0-0-0-0--|
E|--2-2-2-2-2-2-2-2-2--|--2-2-2-2-2-2-2-2-2--|---------------------|---------------------|


[ Tab from: http://www.guitartabs.cc/tabs/b/belle_and_sebastian/like_dylan_in_the_movies_btab.html ]
"If we all went back..." bit
G|---------------------|---------------------|---------------------|---------------------|
D|---------------------|---------------------|---------------------|---------------------|
A|--4-4-4-4-4-4-4-4-4--|---------------------|--0-0-0-0-0-0-0-0-0--|--0-0-0-0-0-0-0-0-0--|
E|---------------------|--4-4-4-4-4-4-4-4-4--|---------------------|---------------------|

G|---------------------|---------------------|---------------------|---------------------|
D|---------------------|---------------------|---------------------|---------------------|
A|---------------------|---------------------|--4-4-4-4-4-4-4-4-4--|--4-4-4-4-4-4-4-4-4--|
E|--0-0-0-0-0-0-0-0-0--|--0-0-0-0-0-0-0-0-0--|---------------------|---------------------|



Ending
G|---------------------|---------------------|---------------------|---------------------|
D|---------------------|---------------------|---------------------|---------------------|
A|--4-4-4-4-4-4-4-4-4--|--2-2-2-2-2-2-2-2-2--|---------------------|---------------------|
E|---------------------|---------------------|--4-4-4-4-4-4-4-4-4--|--4-4-4-4-4-4-4-4-4--|



I'm not sure about all the repetitions... I'm tabbing it without hearing the song.

Comments