Bell Biv Devoe - Poison Chords & Tabs

 

Poison Chords & Tabs

Bell Biv Devoe Chords & Tabs

Version: 1 Type: Bass Tab 0 ratings
1 star 2 stars 3 stars 4 stars 5 stars
comments

Poison Bass Tab

-------------------------------------------------------------------------------
                                      Poison - Bell Biv DeVoe
-------------------------------------------------------------------------------
Tabbed by: TandyJake

I know there's not a whole lot to this song, but the bass is kind of catchy and fun to 
play.  It's very simple and there's only two different licks played during the verse and chorus.
[ Tab from: http://www.guitartabs.cc/tabs/b/bell_biv_devoe/poison_btab.html ]
The bass doesn't come in until they actually start singing.


Intro/Verse
---------------------|---------------------|
---------------------|---------------------|
---------------------|---------------------|
--2----2-4-5-4-5-4---|--2-0-2-4-5-4-5-4----|


Chorus
----------------------------------------------------|
--------6-7-8---9-8---------------------------------|
--------------------9---------9-11-99-11-9/11-------|
--7----------------------9----------------------7---|



Hope this helps and Enjoy!
Comments