Behind Crimson Eyes - Art Of War Chords & Tabs

 

Art Of War Chords & Tabs

Behind Crimson Eyes Chords & Tabs

Version: 1 Type: Tab

Art Of War Tab

   
The Art of War, behind crimson eyes
Drop D tuning
Tab by Dragon

/=slide up
~=let note ring
b=pitch bend
h=hammer
(x1)=repeat a number of times
X0=mute note at the nut.
X=muted note
Intro:
fade in repeating this riff, played clean
D----------|
A----------|
D----------|
G-55332222-
B----------|
E----------|

Chorus:

Guitar 1
D-000---00--00-0-0-|
A-000---00--00-0-0-|
D-000---00--00-0-0-|Repeat x2
G------------------|
B------------------|
E------------------|

D------------------|
A-1111--1111--1111-|
D-3333--3333--3333-|
G------------------|
B------------------|
E------------------|

Guitar 2

D-000-x-x-x-00-x-00-x-0-x-0-|
A-000-8-8-8-00-8~00-8-0-8-0-|
D----101010---10~--10--10-0-|Repeat X2
G---------------------------|
B---------------------------|
E---------------------------|

D------------------|
A-11------11-------|
D---33--33--33--33-|
G-----33------33---|
B------------------|
E------------------|

Repeat chorus twice

Verse:

Guitar 1 plays intro riff quetly in the backround

guitar 2
light paning effect and tremolo at a high rate
D---------------------|
A-5----1----3----5----|
D-7----3----5----7----|
G-7----3----5----7----|
B---------------------|
E---------------------|
"light the match"
D------------------------------------------------|
A------------------------------------------------|
D-5-5-5-5-5555-6-6-6-6-6666-10-10-10-10-10101010-|
G------------------------------------------------|
B------------------------------------------------|
E------------------------------------------------|
[ Tab from: http://www.guitartabs.cc/tabs/b/behind_crimson_eyes/art_of_war_tab.html ]
D-------------------------|
A-------------------------|
D-15-15-15-15-14-14-14-14-|
G-------------------------|
B-------------------------|
E-------------------------|

Bridge:
Part 1
D-------------------------|
A-5-(x16)-3-(x16)-1-(x16)-|
D-7-(x16)-5-(x16)-3-(x16)-|
G-7-(x16)-5-(x16)-3-(x16)-|
B-------------------------|
E-------------------------|

Part 2
D--------------|
A-7/8--3/5/3/5-|
D-9/10-5/7/5/7-|Repeat 4
G--------------|
B--------------|
E--------------|
"I just want to.."
giddie up strumming pattern
D-X0X0X0X0-
A-X0X0X0X0-
D-X0X0X0X0-
G----------|
B----------|
E----------|

Part 3
Discord notes start
D----
A----
D----
G-11-
B--8-
E----

D--------------|
A-7/8--3/5/3/5-|
D-9/10-5/7/5/7-|Repeat 4
G--------------|
B--------------|
E--------------|

D-0~~
A---
D---
G---
B---
E---

Outro:

Guitar 1
D-000---00--00-0-0-|
A-000---00--00-0-0-|
D-000---00--00-0-0-|Repeat x4
G------------------|
B------------------|
E------------------|

Guitar 2

D-000-x-x-x-00-x-00-x-0-x-0-|
A-000-8-8-8-00-8~00-8-0-8-0-|
D----101010---10~--10--10-0-|Repeat x4
G---------------------------|
B---------------------------|
E---------------------------|

giddie up strumming pattern
D-X0X0X0X0-0
A-X0X0X0X0-5
D-X0X0X0X0-7
G----------|
B----------|
E----------|

intro riff fades out..

SONG STRUCURE
Intro
Chorus x2
Verse
Chorus X2
Bridge pt.1 X2
bridge pt.2
Bridge pt.3
(break)
Chorus x3
Outro.


There you have it folks it's all there, right down to the muted notes, bass tab for the 
prettymuch follows guitar 1, enjoy.
contact me at bullram13@hotmail.com