Behemoth - Sculpting The Throne Ov Seth Chords & Tabs

 

Sculpting The Throne Ov Seth Chords & Tabs

Behemoth Chords & Tabs

Version: 1 Type: Tab

Sculpting The Throne Ov Seth Tab

Band:         Behemoth
Song:         Sculpting The Throne Ov Seth
Album:        Demigod
Tabber:       Slashdotcom//

Down Tune Flat Below C Ovtave
Two Gits and an Acoustic

[ Tab from: http://www.guitartabs.cc/tabs/b/behemoth/sculpting_the_throne_ov_seth_tab.html ]
Riff 1 Both Gits
|---------------------------------------------------------|
|---------------------------------------------------------|
|----10-9-7-9-------14-13-10-13-14-10-13------10-9-7-9----|
|-----x-x-x-x--------x--x--x--x--x--x--x-------x-x-x-x----|
|-2---8-7-5-7---2---12-11--8-11-12--8-11---2---8-7-5-7----|
|-0-------------0--------------------------0--------------|

-----------------------------|
-----------------------------|
-----------------------------|
-9-10-9--7-9-7--6-7-6--------|
-x--x-x--x-x-x--x-x-x--3-6-3-|
-7--8-7--5-7-5--4-5-4--1-4-1-|
                       . . .

The Rest Of The Song including the Acoustics Will Be Coming
Sit Tight