Before Today - Roots Beneath The Ideals Chords & Tabs

 

Roots Beneath The Ideals Chords & Tabs

Before Today Chords & Tabs

Version: 1 Type: Tab 0 ratings
1 star 2 stars 3 stars 4 stars 5 stars
comments

Roots Beneath The Ideals Tab

-new artist

-BEFORE TODAY    "ROOTS BENEATH THE IDEALS"
-by SINGLECUT

Figure 1:
E-------------------------------|
B-------------------------------|
G----------------2------4-------|
D--6------4------x------x-------|
A--4------4------2------4-------|
E--2------2---------------------|

Fig 2:
e-------------|
b-------------|
g-------------|
d--3--4~------|
a--3--4~------|
e--1--2~------|

E-------------|
B---------7*--|
G--9b11~------|
D-------------|
A-------------|
E-------------|

Fig 3:
e--------------------------------------------------|
b--------------------------------------------------|
g-----7--9--10--13--10--14--13--9--------6h7h9-6---|
d--4--7--9--10--13--10--14--13--9--7--6------------|
a--4--5--7--8---11--8---12--11--7--7--6------------|
e--2-------------------------------5--4------------|

e--------------------------------------------------|
b--------------------------------------------------|
g-----7--9--10--13--10--14--13--10--6--4--2--------|
d--4--7--9--10--13--10--14--13--10--6--4--2--------|
a--4--5--7--8---11--8---12--11--8---4--2--0--------|
e--2-----------------------------------------------|

Fig 4:
e-------------------|--------------------|
b-------------------|--------------------|
g-----7-------------|-----7--------------|
d--4--7--2--3--6--3-|--4--7--2--3--6--7--|
a--4--5--2--3--6--3-|--4--5--2--3--6--7--|
e--2-----0--1--4--1-|--2-----0--1--4--5--|


Second guitar(Comes in on second time through fig 4)
E-------------------------------|
B-------------------------------|
G--7/9--9--9--7--6--6~----------|
D-------------------------------|
A--5/7--7--7--5--4--4~----------|
E-------------------------------|


Fig 5 (Vic plays this all on one string, but I already tabbed it out like this)
e-----------------------------------------------------------------------|
b-----------------------------------------------------------------------|
g---------------------------------------------------1h2--1-----1h2------|
d------------0h2-------------------0h2--2h4----2h4----------4-------4---|
a--2h4--4h5-------4h5----2h4--4h5---------------------------------------|
e-----------------------------------------------------------------------|


Solo:
e----------------/17-16-14-----------------|-19p17p14----------|--19p17p14--------|
b---------------------------17-14-17-14~---|----------17p14----|------------14----|
g--/11~--/11~------------------------------|-------------------|------------------|
d------------------------------------------|-------------------|------------------|
a------------------------------------------|-------------------|------------------|
e------------------------------------------|-------------------|------------------|
^^^ 5 times ^^^ ^^^6th time^^^

e-------------------------------|
b--12--14--14h15--14--12--14----|
g-------------------------------|
d-------------------------------|
a-------------------------------|
e-------------------------------|



Repeat Fig 3

Fig 6:

E-------------------------|
B------------------9------|
G------------11-11---11~--|
D------11-11--------------|
A--9-9--------------------|
E-------------------------|

[ Tab from: http://www.guitartabs.cc/tabs/b/before_today/roots_beneath_the_ideals_tab.html ]
Figure 7:
Then, guitar 1 plays intro chords, while guitar 2 plays:
(Play twice) End on:
E-----------------------------------------------|-----|
B-----------------------------------------------|-----|
G--9-7-6----11/13--13/14----11/13--13/14---x-x--|--6--|
D------------------------------------------x-x--|-----|
A--7-5-4-----9/11--11/12----9/11---11/12---x-x--|--4--|
E-----------------------------------------------|-----|


Fig 8:
e------5p4p0------2--2h4h5p4p0--4h5h7p5p4-----------------------------------------|
b----5-------2h5-------------------------------2h3-2---2--------3---2h3p2---------|
g--6-----------------------------------------2-------2---2--2/4---4-------2-------|
d------------------------------------------2---------------------------------4-4--|
a----------------------------------------------------------------------------4-4--|
e----------------------------------------------------------------------------2-2--|

e------5p4p0-----4h7p4-----4h5p4-----|--9--------9--------9h12------------------------|
b----5-------2h5-------5-2-------5\7-|----10-------10---------------------------------|
g--6---------------------------------|-------11~------11~-----------------------------|
d------------------------------------|------------------------------------------------|
a------------------------------------|------------------------------------------------|
e------------------------------------|------------------------------------------------|

e--9--5-----9--5------5h7----|-------------|
b--------7---------7---------|-------------|
g----------------------------|--6--7--9----|
d----------------------------|-------------|
a----------------------------|--4--5--7----|
e----------------------------|-------------|


Fig 9:

e----------------------------------------------------------------------------|
b--------------------------------------7------------------9------------------|
g--------------------------------6-7-9--------------6-7-9-----------9-7-6----|
d------4--6-6h7-6-4-6------4-6-7--------------6-7-9-----------6-7-9----------|
a----4-------------------5------------------7---------------8----------------|
e--2-------------------------------------------------------------------------|


Fig 10:

e---------------------------------------------------------------------------------|
b---------------------------------------------------------------------------------|
g---------------------------------------------------------------------------------|
d----6-6h7p6---6-6h7p6---6-6h7p6---6-6h7p6---6-6h7p6--6-6h7p6---6-6h7p6--6-6h7p6--|
a--9---------9---------7---------7---------5---------5--------4---------4---------|
e---------------------------------------------------------------------------------|

e------------------------------------------------------10-9-7-------------|
b-------------------------------------------------------------10-9-7-6----|
g----9-7-6----9-7-6---9-7-6---9-7-6---9-7-6---9-7-6--7--------------------|
d-------------------7-------7-------9-------9-----------------------------|
a--9--------9-------------------------------------------------------------|
e-------------------------------------------------------------------------|

Fig 11:
E----------------------------------------------|
B----------------------------------------------|
G-------------7----9----11-11-11-11----7----6--|
D--4-4-4-4-------------------------------------|
A--4-4-4-4----5----7----9--9--9--9-----5----4--|
E--2-2-2-2-------------------------------------|


Outro: Guitar 1 plays fig 7, guitar 2 plays the intro chords
Comments