Beethoven Ludwig - Ode To Joy (100% Correct) Chords & Tabs

 

Ode To Joy (100% Correct) Chords & Tabs

Beethoven Ludwig Chords & Tabs

Version: 1 Type: Tab 3 ratings
1 star 2 stars 3 stars 4 stars 5 stars
comments

Ode To Joy (100% Correct) Tab

Ode To Joy-->hoyalax07

If you have any questions or comments my email is hoyalax07@bellsouth.net

E|0-0---1---3-3--1--0--------------0-0-------|
B|---------------------3---1-1--3------3-3---|
G|-------------------------------------------|
D|-------------------------------------------|
A|-------------------------------------------|
e|-------------------------------------------|

[ Tab from: http://www.guitartabs.cc/tabs/b/beethoven_ludwig/ode_to_joy_100_correct_tab.html ]
E|0-0---1---3-3--1--0-------------0-0--------|
B|--------------------3---1-1--3-------3-1---|
G|-------------------------------------------|
D|-------------------------------------------|
A|-------------------------------------------|
e|-------------------------------------------|

E|---0-------0--1--0---------0--1--0-------------|
B|-3---1---3----------1---3-----------3--1--3----|
G|----------------------------------------------0|
D|-----------------------------------------------|
A|-----------------------------------------------|
e|-----------------------------------------------|


E|0-0---1---3-3--1--0--------------0-0-------|
B|---------------------3---1-1--3------3-1---|
G|-------------------------------------------|
D|-------------------------------------------|
A|-------------------------------------------|
e|-------------------------------------------|
Comments