Beethoven Ludwig - Ninth Symphony Chords & Tabs

 

Ninth Symphony Chords & Tabs

Beethoven Ludwig Chords & Tabs

Version: 6 Type: Tab 0 ratings
1 star 2 stars 3 stars 4 stars 5 stars
comments

Ninth Symphony Tab

e--12--12--13--15--15--13--12--12----------------12--12---------
b---------------------------------15--13--13--15----------15--15
g---------------------------------------------------------------
d---------------------------------------------------------------
a---------------------------------------------------------------
e---------------------------------------------------------------

e--12--12--13--15--15--13--12--12-----------------12------------
b---------------------------------15--13--13--15------15--13--13
g---------------------------------------------------------------
d---------------------------------------------------------------
a---------------------------------------------------------------
e---------------------------------------------------------------
[ Tab from: http://www.guitartabs.cc/tabs/b/beethoven_ludwig/ninth_symphony_tab_ver_6.html ]
e---------12--------12-13-12--------12-13-12---------------15
b--15--15----13--15----------13--15----------15--13--15------
g------------------------------------------------------------
d------------------------------------------------------------
a------------------------------------------------------------
e------------------------------------------------------------

e--12--12--13--15--15--13--12--12----------------12-------------
b---------------------------------15--13--13--15-----15--13---13
g---------------------------------------------------------------
d---------------------------------------------------------------
a---------------------------------------------------------------
e---------------------------------------------------------------

There ya go.  This is the correst one.  I worked out all the 
kinks in the other one.
Comments