Beethoven Ludwig - Fur Elise Chords & Tabs

 

Fur Elise Chords & Tabs

Beethoven Ludwig Chords & Tabs

Version: 9 Type: Tab 0 ratings
1 star 2 stars 3 stars 4 stars 5 stars
comments

Fur Elise Tab

   
Artist: Beethoven
Song: Fur Elise
Tabbed by: John Leadman


   This is a classical song that everyone knows. Once you Start playing this
   you will say "oh that's that one song" me myself I didn't know the name
   to this song until a few days ago this is not complete but the rest is just
   too much and too hard to tab. well enjoy


   CHORDS:


   Em (022000)
   B7 (x21202)
   G  (x-10-9-7-8-7)  <- like a barred C-chord
   D  (x57775)

                       Em          B7          Em
   E|--7-6-7-6-7-2-5-3-0-------0-2-2-------0-2-3-----0-|
   B|----------------------0-0-----------0---------0---|
   G|--------------------0-------------2---------0-----|
   D|------------------2-------------1---------2-------|
   A|------------------------------2-------------------|
   E|--------------------------------------------------|
[ Tab from: http://www.guitartabs.cc/tabs/b/beethoven_ludwig/fur_elise_tab_ver_9.html ]
                      Em          B7          Em
   E--7-6-7-6-7-2-5-3-0-------0-2-2-------3-2-0-----2-3-5-|
   B----------------------0-0-----------0---------0-------|
   G--------------------0-------------2---------0---------|
   D------------------2-------------1---------2-----------|
   A------------------------------2-----------------------|
   E------------------------------------------------------|

      G            D           Em          B7
   E--7--------8-7-5-------7-5-3-----0-5-3-2-------2---2-2-|
   B---------8-----------7---------0-------------0---0-----|
   G-------7-----------7---------0-------------2-----------|
   D-----9-----------7---------2-------------1-------------|
   A--10-----------5-----------------------2---------------|
   E-------------------------------------------------------|

                      Em          B7          Em
   E--7-6-7-6-7-2-5-3-0-------0-2-2-------3-2-0---|
   B----------------------0-0-----------0-----0---|
   G--------------------0-------------2-------0---|
   D------------------2-------------1---------2---|
   A------------------------------2---------------|
   E----------------------------------------------|
Comments