Beethoven Ludwig - Fur Elise Chords & Tabs

 

Fur Elise Chords & Tabs

Beethoven Ludwig Chords & Tabs

Version: 8 Type: Tab 0 ratings
1 star 2 stars 3 stars 4 stars 5 stars
comments

Fur Elise Tab

   
#----------------------------------PLEASE NOTE--------------------------------#
#This file is the author's own work and represents their interpretation of the#
#song. You may only use this file for private study, scholarship, or research.#
#-----------------------------------------------------------------------------#

Date: Wed, 13 May 1998 06:43:07 -0700 (PDT)
From: CONNOR ROBERTS 
Subject: b/beethoven_ludwig/fur_elise2.tab

This is "Fur Elise"
written by Beethoven.

transcribed by Connor Roberts
questions/comments refer to: countingcrows1@yahoo.com


Tuning : E A D G B E 	Rythme 3/8


Label A
|-0---0---0---------------------------------------0---0---0-------|
|---4---4---0-3-1-------------0---------0-1---------4---4---0-3-1-|
|-----------------2---------2---------1---------------------------|
|-------------------------2---------2-----------2-----------------|
|-----------------------3-----------------------------------------|
|-----------------------------------------------------------------|


|-------------------------0---0---0-------------------|
|----------0-------1-0------4---4---0-3-1-------------|
|2-------2-------------2------------------2---------2-|
|------2---------2--------------------------------2---|
|----3------------------------------------------3-----|
|-----------------------------------------------------|


Label B
|------------------0---0---0-------------------|
|0-------0-1---------4---4---0-3-1-------------|
|------1---------------------------2---------2-|
|----2-----------2-------------------------2---|
|----------------------------------------3-----|
|----------------------------------------------|
[ Tab from: http://www.guitartabs.cc/tabs/b/beethoven_ludwig/fur_elise_tab_ver_8.html ]
|-0---0---0---------------------------------------0---|
|---4---4---0-3-1-------------0---------0-1---------4-|
|-----------------2---------2---------1---------------|
|-------------------------2---------2-----------2-----|
|-----------------------3-----------------------------|
|-----------------------------------------------------|


|0---0---------------------------------0---|
|--4---0-3-1-------------0-------1-0-----4-|
|------------2---------2-------------2-----|
|--------------------2---------2-----------|
|------------------3-----------------------|
|------------------------------------------|


|0---0---------------------------------------0---0---0-------|
|--4---0-3-1-------------0---------0-1---------4---4---0-3-1-|
|------------2---------2---------1---------------------------|
|--------------------2---------2-----------2-----------------|
|------------------3-----------------------------------------|
|------------------------------------------------------------|


|------------|
|------------|
|2---------2-|
|--------2---|
|------3-----|
|------------|

|-0---0---0-------------------------------|
|---4---4---0-3-1-------------0---------0-|
|-----------------2---------2---------1---|
|-------------------------2---------2-----|
|-----------------------3-----------------|
|-----------------------------------------|


|--------0---0---0-------------------------------|
|1---------4---4---0-3-1-------------0-------1-0-|
|------------------------2---------2-------------|
|------2-------------------------2---------2-----|
|------------------------------3-----------------|
|------------------------------------------------|


|---0---0---0-------------------|
|-----4---4---0-3-1-------------|
|2------------------2---------2-|
|---------------------------2---|
|-------------------------3-----|
|-------------------------------|


|--------------------0---0---0-------------------|
|0---------0-1---------4---4---0-3-1-------------|
|--------1---------------------------2---------2-|
|------2-----------2-------------------------2---|
|------------------------------------------3-----|
|------------------------------------------------|

repeat label B, then goto label A

questions/comments refer to: countingcrows1@yahoo.com
Comments