Beethoven Ludwig - Fur Elise Chords & Tabs

 

Fur Elise Chords & Tabs

Beethoven Ludwig Chords & Tabs

Version: 5 Type: Tab 2 ratings
1 star 2 stars 3 stars 4 stars 5 stars
comments

Fur Elise Tab

0-0-0------------------------------
-4-4-0-3-1------------------0-1-0--
--------------2-----2-----1-------2
------------2-----2-----2----------
----------0-----3-----2-----------0
-----------------------------------

repeat 4 times.
[ Tab from: http://www.guitartabs.cc/tabs/b/beethoven_ludwig/fur_elise_tab_ver_5.html ]
------0-------1-0--------0-----------------0
0-1-3-----1-------3---3----3-1---1---0-1-0-0
--------0---0-------0--0-------0---0-------1
-------------------------------------------2
------3----------------------3-------------2
------------------3------------------------0

I think this is it.
--kris meredith
Comments