Beethoven Ludwig - Fur Elise Chords & Tabs

 

Fur Elise Chords & Tabs

Beethoven Ludwig Chords & Tabs

Version: 3 Type: Tab 23 ratings
1 star 2 stars 3 stars 4 stars 5 stars
comments

Fur Elise Tab

This is the full tab for fur elise, any questions e-mail me at:sunsupernova@aol.com

E/---------------------------------------------------------------------------------------------------------
B/---5----4----5----4----5----0----3----1----------------------------------0-----------------0----1--
G/-----------------------------------------------2---------------------2-------------------0-------------
D/----------------------------------------------------------------2------------------2--------------------
A/----------------------------------------------------------3---------------------------------------------
E/---------------------------------------------------------------------------------------------------------


E/---------------------------------------------------------------------------------------------------------
B/----------5----4----5-----4----0-----3----1-----------------------------0--------1----------0-------
G/----0----------------------------------------------2------------------2------------------------------2-
D/---------------------------------------------------------------2----------------2-----------------------
A/----------------------------------------------------------3---------------------------------------------
E/---------------------------------------------------------------------------------------------------------

[ Tab from: http://www.guitartabs.cc/tabs/b/beethoven_ludwig/fur_elise_tab_ver_3.html ]
E/--------------------0------------1------0-------------------0------------------------------------------
B/----0----1----3-------------------------------3-----------------------3------1---------3----1---0---
G/---------------------------0----------------------------------------------------------------------------
D/------------------------------------------------------3------------------------------2------------------
A/---------------------------------------------------------------------------------------------------------
E/-------------------------------------------------------------------------------------------------------0


E/---------------------------------------------------------------------------------------------------------
B/---5----4----5----4----5----0----3----1----------------------------------0-----------------0----1--
G/-----------------------------------------------2---------------------2-------------------0-------------
D/----------------------------------------------------------------2------------------2--------------------
A/----------------------------------------------------------3---------------------------------------------
E/---------------------------------------------------------------------------------------------------------


E/---------------------------------------------------------------------------------------------------------
B/----------5----4----5-----4----0-----3----1-----------------------------0--------1----------0-------
G/----0----------------------------------------------2------------------2------------------------------2-
D/---------------------------------------------------------------2----------------2-----------------------
A/----------------------------------------------------------3---------------------------------------------
E/---------------------------------------------------------------------------------------------------------
Comments