Beethoven Ludwig - Fur Elise Electric Guitar Chords & Tabs

 

Fur Elise Electric Guitar Chords & Tabs

Beethoven Ludwig Chords & Tabs

Version: 1 Type: Tab 5 ratings
1 star 2 stars 3 stars 4 stars 5 stars
comments

Fur Elise Electric Guitar Tab


This is Fur Elise as I learned it on the electric guitar. Please e-mail questions or comments to Dead_to_me@hotmail.com


e  0------------0------------0-----------------------------------------------------------------------------------------
B  -------4------------4------------0-----3-----1---------------------------------0-------------------0-----1-----
G  --------------------------------------------------------2-------------------2-------------------1-------------------
D  ----------------------------------------------------------------------2-------------------2--------------------------
A  ---------------------------------------------------------------3------------------------------------------------------
E  -----------------------------------------------------------------------------------------------------------------------

e  -------0------------0------------0----------------------------------------------------------------------------------
B  --------------4------------4------------0-----3-----1---------------------------------0--------------------------
G  ---------------------------------------------------------------2-------------------2---------------------------------
D  2---------------------------------------------------------------------------2----------------------------------------
A  ----------------------------------------------------------------------3-----------------------------------------------
E  -----------------------------------------------------------------------------------------------------------------------

e  ---------------------------------------------------------------0------------------------------------------------------
B  -------1-----0--------------------------0-----1-----3---------------------------------0--------------------------
G  ---------------------2-------------------------------------------------------------2---------------------------------
D  2---------------------------------------------------------------------------2----------------------------------------
A  ----------------------------------------------------------------------3-----------------------------------------------
E  -----------------------------------------------------------------------------------------------------------------------
[ Tab from: http://www.guitartabs.cc/tabs/b/beethoven_ludwig/fur_elise_electric_guitar_tab.html ]
e  -------1-----0-----------------------------------------------0------------------------------------------------------
B  ---------------------3--------------------------0-------------------3-----1--------------------------0------------
G  5----------------------------------------2------------------------------------------------------2-------------------
D  -----------------------------------2-------------------3---------------------------------2--------------------------
A  ----------------------------3------------------------------------------------------3---------------------------------
E  -----------------------------------------------------------------------------------------------------------------------

e  -------------------------------------------------0------------0-----0-----------------------------------------------
B  -------3-----1-----0------------------------------------------------------------------------------------------------
G  -----------------------------------------------------------------------------------------------------------------------
D  3---------------------------------2-----2------------2-------------------------------------------------------------
A  -----------------------------------------------------------------------------------------------------------------------
E  -----------------------------------------------------------------------------------------------------------------------

e  0------------0------------0------------0------------0------------0-----------------------------------------------
B  -------4------------4------------4------------4------------4------------------------------------------------------
G  -----------------------------------------------------------------------------------------------------------------------
D  -----------------------------------------------------------------------------------------------------------------------
A  -----------------------------------------------------------------------------------------------------------------------
E  -----------------------------------------------------------------------------------------------------------------------

e  ---------------------------------------------------------------0------------0------------0--------------------------
B  ---------------------0-------------------0-----1-------------------4------------4------------0-----3-----1-----
G  --------------2-------------------1----------------------------------------------------------------------------------
D  -------2-------------------2--------------------------2-------------------------------------------------------------
A  3---------------------------------------------------------------------------------------------------------------------
E  -----------------------------------------------------------------------------------------------------------------------

e  -----------------------------------------------------------------------------------------------------------------------
B  ----------------------------0------------1-----0--------------------------------------------------------------------
G  -------------------2---------------------------------2-------------------------------------------------------------
D 2--------------2-------------------2----------------------------------------------------------------------------------
A  -------3--------------------------------------------------------------------------------------------------------------
E  -----------------------------------------------------------------------------------------------------------------------
Comments