Beethoven Ludwig - Beethovens 9th Chords & Tabs

 

Beethovens 9th Chords & Tabs

Beethoven Ludwig Chords & Tabs

Version: 1 Type: Tab 3 ratings
1 star 2 stars 3 stars 4 stars 5 stars
comments

Beethovens 9th Tab

e--0-0-1-3-3-1-0---------0-0-------------------------
b----------------3-1-1-3----3-3----------------------
g----------------------------------------------------
d----------------------------------------------------
a----------------------------------------------------
e----------------------------------------------------

e--0-0-1-3-3-1-0---------0---------------------------
b----------------3-1-1-3----3-1-1--------------------
g----------------------------------------------------
d----------------------------------------------------
a----------------------------------------------------
e----------------------------------------------------
[ Tab from: http://www.guitartabs.cc/tabs/b/beethoven_ludwig/beethovens_9th_tab.html ]
e-----0-----0-1-0------------------------------------
b-3-3---1-3-------3-1-3------------------------------
g-----------------------0----------------------------
d----------------------------------------------------
a----------------------------------------------------
e----------------------------------------------------

e--0-0-1-3-3-1-0---------0---------------------------
b----------------3-1-1-3----3-1-1--------------------
g----------------------------------------------------
d----------------------------------------------------
a----------------------------------------------------
e----------------------------------------------------
Hey this was my first tab its beetovens 9th, its the best one out there enjoy 
Tabbed by Ryan Barnes





Comments