Beethoven Ludwig - Beethovens 9th Symphony Chords & Tabs

 

Beethovens 9th Symphony Chords & Tabs

Beethoven Ludwig Chords & Tabs

Version: 1 Type: Tab 2 ratings
1 star 2 stars 3 stars 4 stars 5 stars
comments

Beethovens 9th Symphony Tab

-0-0-1-3-3-1-0--------0-0--------0-0-1-3-3-1-0-----------------
--------------3-1-1-3-----3--------------------3-1-1-3-0-3-1-1-
---------------------------------------------------------------
---------------------------------------------------------------
---------------------------------------------------------------
---------------------------------------------------------------

-----0-----0-1-0-----0-1-0----------0-0-1-3-3-1-0---------0----
-3-3---1-3-------1-3-------3-1-3------------------3-1-1-3---1-1
---------------------------------0-----------------------------
---------------------------------------------------------------
---------------------------------------------------------------
---------------------------------------------------------------
[ Tab from: http://www.guitartabs.cc/tabs/b/beethoven_ludwig/beethovens_9th_symphony_tab.html ]
-----0-----0-1-0-----0-1-0----------0-0-1-3-3-1-0--------0-0---
-3-3---1-3-------1-3-------3-1-3------------------3-1-1-3---3-3
---------------------------------0-----------------------------
---------------------------------------------------------------
---------------------------------------------------------------
---------------------------------------------------------------

-0-0-1-3-3-1-0---------0---------------------------------------
---------------3-1-1-3---3-1-1---------------------------------
---------------------------------------------------------------
---------------------------------------------------------------
---------------------------------------------------------------
---------------------------------------------------------------
another easy to follow tab from Rakhe, the master of tabs and lyrics
Comments