Beethoven Ludwig - Beethovens 9th Chords & Tabs

 

Beethovens 9th Chords & Tabs

Beethoven Ludwig Chords & Tabs

Version: 1 Type: Bass Tab 0 ratings
1 star 2 stars 3 stars 4 stars 5 stars
comments

Beethovens 9th Bass Tab

This is the bass part. 
this is 110% correct as i was taught it in a bass lesson
[ Tab from: http://www.guitartabs.cc/tabs/b/beethoven_ludwig/beethovens_9th_btab.html ]
STANDARD TUNING
G|------0-0-----------------------0-0----------------------|
D|2-2-3----3-2-0---0-2-2-0-0-2-2-3---3-2-0---0-2-0---------|
A|--------------3-3-----------------------3-3-----3-3------|
E|---------------------------------------------------------|

G|-----------------------------|
D|0-0-2-0-2-3-2--0-2-3-2-0-2---|
A|-----3--------3---------3----|
E|---------------------------3-|

g|-----0-0----------------|
d|2-2-3---3-2-0---0-2-0---|
a|-------------3-3-----3-3|
e|------------------------|
Comments