Beethoven Ludwig - 9th Symphony Chords & Tabs

 

9th Symphony Chords & Tabs

Beethoven Ludwig Chords & Tabs

Version: 1 Type: Tab 0 ratings
1 star 2 stars 3 stars 4 stars 5 stars
comments

9th Symphony Tab

   
Artist: Beethoven
Song: 9th Symphony

This is just a way of playing it in power chords. Sounds good with 
distortion.

e|-------------------------------| 
B|-------------------------------|  
G|-0-0-3-5-5-3-0---------0-0-----|
D|-0-0-3-5-5-3-0-5-3-3-5-0-0-5-5-|
A|-0-0-1-3-3-1-0-5-3-3-5-0-0-3-3-|
E|---------------3-1-1-3-----3-3-| 
[ Tab from: http://www.guitartabs.cc/tabs/b/beethoven_ludwig/9th_symphony_tab.html ]
(then..)
e|-------------------------------| 
B|-------------------------------| 
G|-0-0-3-5-5-3-0---------0-------|
D|-0-0-3-5-5-3-0-5-3-3-5-0-5-3-3-|
A|-0-0-1-3-3-1-0-5-3-3-5-0-3-1-1-|
E|---------------3-1-1-3---3-1-1-|

(then..)
e|-----------------------------------|
B|-----------------------------------|
G|-----0-----0-3-0-----0-3-0---------|
D|-5-5-0-3-5-0-3-0-3-5-0-3-0-5-3-5-0-|
A|-5-5-0-3-5-0-1-0-3-5-0-1-0-5-3-5-0-|
E|-3-3---1-3-------1-3-------3-1-3-0-|
(play this section twice)



Comments