Beef - Mood Is Rising Chords & Tabs

 

Mood Is Rising Chords & Tabs

Beef Chords & Tabs

Version: 1 Type: Tab 0 ratings
1 star 2 stars 3 stars 4 stars 5 stars
comments

Mood Is Rising Tab

Beef - Mood Is Rising
[ Tab from: http://www.guitartabs.cc/tabs/b/beef/mood_is_rising_tab.html ]
    [Fis]                [Gis]
e |-----------------------------|
B |------5----------------------|
G |---4-----4---------4------6--|
D |----4------4-----4------6----|
A |---------------2------4------|
E |-2---------------------------|
                    [e 2-1--1-2]

[Fis Fis Fis Fis Gis Gis F F]
e |-2-2-2-2--4-4--1-1-|
B |-2-2-2-2--4-4--1-1-|
G |-3-3-3-3--6-6--2-2-|
D |-4-4-4-4--6-6--3-3-|
A |-------------------|
E |-------------------|

e |-9-9-9-9-7-6--7-7-7-7-6-4--6-6-6-6-4-2-4-|
Comments