Bee Gees - Wedding Day Chords & Tabs

 

Wedding Day Chords & Tabs

Bee Gees Chords & Tabs

Version: 2 Type: Tab 0 ratings
1 star 2 stars 3 stars 4 stars 5 stars
comments

Wedding Day Tab

   
ARTIST: Bee Gees
TITLE: Weddding Day
ALBUM: This Is Where I Came In
TABBED BY: Martin Kelly

ACOUSTICS - Barry + Maurice Gibb
ELECTRIC - Alan Kendall

ACOUSTIC PARTS


INTRO - After 17 seconds = G

VERSE

D  A  G  D  A

PRE-CHORUS

D  A  G  D  A  G

CHORUS

D  Bm  G  A  D  Bm  G  G

1. D  A  G
2. D

MIDDLE 8 [with ELECTRIC]

Bb  C  D  Bb  C  Em  A


ELECTRIC PARTS
[ Tab from: http://www.guitartabs.cc/tabs/b/bee_gees/wedding_day_tab_ver_2.html ]
CHORUS 3
E-----------------------------------------------------------------------------------------
B----------------10[12]---10-8-7--------------------------8/10--8-7-----------------------
G--7-----------------------------9-7---------9--9/11/9--------------9-7--7----------------
D--7---------------------------------------------------------------------7----------------
A--5---------------------------------------------------------------------5----------------
E-----------------------------------------------------------------------------------------

E-----------------------------------------------------------------------------------------
B-----------------------------------------------------------------------------------------
G--4------------------------11-9-7-9------------------------------------------------------
D--4------------5-------------------------------------------------------------------------
A--2------------5-------------------------------------------------------------------------
E---------------3-------------------------------------------------------------------------

CODA

[Harmonics]
E-----------------------------------------------------------------------------------------
B---------------------[7]-----------------------------------------------------------------
G--------[7]-----------------[7]----------------------------------------------------------
D-----------------------------------------------------------------------------------------
A-----------------------------------------------------------------------------------------
E-----------------------------------------------------------------------------------------


For a list of tabs contact martin.n.kelly@ntlworld.com
Comments