Bee Gees - This Is Where I Came In Complete Chords & Tabs

 

This Is Where I Came In Complete Chords & Tabs

Bee Gees Chords & Tabs

Version: 1 Type: Tab 0 ratings
1 star 2 stars 3 stars 4 stars 5 stars
comments

This Is Where I Came In Complete Tab

ARTIST: Bee Gees
TITLE: This Is Where I Came In
ALBUM: This Is Where I Came In
TABBED BY: Martin Kelly


ACOUSTIC GUITAR INTRO + VERSES [Two guitars left + Right]

E----------]------------------------------------------------------------------------------
B----------]-----------------------1------------------------------------------------------
G----------]------------2--------0--------------------------------------------------------
D----------]-0'2'0----2---2----2---------2-0'2--------------------------------------------
A----------]--------0--------3------------------------------------------------------------
E--0-3-2-0-]-------------------------0----------------------------------------------------

P.M--------------------------------------------

	After three repeats in verses, you play this three times

E--0-------0---------0--------0-----------------------------------------------------------
B--0-------2---------1--------0-----------------------------------------------------------
G--0-------2---------0--------0-----------------------------------------------------------
D--2-------2---------2--------2-----------------------------------------------------------
A--2-------0---------3--------2-----------------------------------------------------------
E--0-----------------0--------0-----------------------------------------------------------

P.M------------------------------

1. To this
		repeat twice
E--0-------0------------------0--------0--------------------------------------------------
B--0-------2------------------1--------0--------------------------------------------------
G--0-------2------------------0--------0--------------------------------------------------
D--2-------2------------------2--------2--------------------------------------------------
A--2-------0------------------3--------2--------------------------------------------------
E--0--------------------------0--------0--------------------------------------------------

PRE-CHORUS [Hope Rides On]

Acoustic						Repeat once
E--3-------------2-----------0---------0---------0----------------------------------------
B--0-------------3-----------0---------0---------1----------------------------------------
G--0-------------2-----------0---------0---------2----------------------------------------
D--0-------------0-----------2---------2---------2----------------------------------------
A--2-------------------------2---------2---------0----------------------------------------
E--3-------------------------0---------0--------------------------------------------------
]
]Electric
E--------------------------------------0--------------------------------------------------
B--------------------------------------0--------------------------------------------------
G--------0-------------0-----------0---0--------------------------------------------------
D------5-------------4-----------2-----2--------------------------------------------------
A----5-------------5-----------5-------2--------------------------------------------------
E--------------------------------------0--------------------------------------------------
[ Tab from: http://www.guitartabs.cc/tabs/b/bee_gees/this_is_where_i_came_in_complete_tab.html ]
CHORUS [All guitars]
				Repeat twice
E--0--------0---------3-------0------------------------------------------------------------
B--0--------1---------0-------1------------------------------------------------------------
G--0--------0---------0-------2------------------------------------------------------------
D--2--------2---------0-------2------------------------------------------------------------
A--2--------3---------2-------0------------------------------------------------------------
E--0--------0---------3-------------------------------------------------------------------

BRIDGE

Acoustic			Repeat twice
E--0-----------0---------------------------------0----------------------------------------
B--0-----------2---------------------------------1----------------------------------------
G--0-----------2---------------------------------0----------------------------------------
D--2-----------2---------------------------------2----------------------------------------
A--2-----------0---------------------------------3----------------------------------------
E--0---------------------------------------------0----------------------------------------
]
]Electric [2nd + 3rd time only]
E-----------------------------------------------------------------------------------------
B------------------15[17]-[17]------------------------------------------------------------
G-----------------------------------------------------------------------------------------
D-----------------------------------------------------------------------------------------
A-----------------------------------------------------------------------------------------
E-----------------------------------------------------------------------------------------

ENDING [Electric]

E-----------------------------------------------------------------------------------------
B------------------15[17]----------------15[17]---------------15[17]----------------------
G-----------------------------------------------------------------------------------------
D-----------------------------------------------------------------------------------------
A-----------------------------------------------------------------------------------------
E-----------------------------------------------------------------------------------------

E-----------------------------------------------------17[19]--17--15----------------------
B-----------------15[17]--------------15[17]---------------------------17-----------------
G-----------------------------------------------------------------------------------------
D-----------------------------------------------------------------------------------------
A-----------------------------------------------------------------------------------------
E-----------------------------------------------------------------------------------------

E-----------------------------------------------------------------------------------------
B----------15[17]------15[17]-------15[17]--15-12-10-------------------------------15[17]-
G-----------------------------------------------------12-11-9--9[11]--9-7-9---------------
D-----------------------------------------------------------------------------------------
A-----------------------------------------------------------------------------------------
E-----------------------------------------------------------------------------------------

fades out.

Think that covers everything. For more tabs contact martin.n.kelly@ntlword.com
Comments