Bee Gees - Our Love Chords & Tabs

 

Our Love Chords & Tabs

Bee Gees Chords & Tabs

Version: 1 Type: Bass Tab 0 ratings
1 star 2 stars 3 stars 4 stars 5 stars
comments

Our Love Bass Tab

BEE GEES
OUR LOVE (DON'T THROW IT ALL AWAY) FEATURING ANDY GIBB

BASS TAB BY MEELIS SAARD

Note: you got to learn the timings your self

Verse 
   Maybe I don't...
E |-----------------------------------------------------------------|
H |-----------------------------------------------------------------|
F#|-------------------4--6-----------------------------3---4--6-----|
C#|-4--4----4----6----------4--------4--4----4----6--------------4--|

  You will love...
E |-------------------------------------------------------------------------|
H |----------------3--------------------------------------------------------|
F#|-4----6----3---------1----6------------1-2-3-4----6----3----4---4-3-2-1--|
C#|-------------------------------4----4------------------------------------|

Chorus 1
   Don't throw it all away love oh love..
E |-------------------------------------------------------------------------
H |-----8-----------------6------------------8-----------------6------------
F#|-6-------6--6--6---4------------------6-------6--6--6---4----------------
C#|---------------------------4--4--4------------------------------4--4--4--
[ Tab from: http://www.guitartabs.cc/tabs/b/bee_gees/our_love_btab.html ]
E --------------------------------------------------------------|
H ---------------------------3---------1--1---------------------|
F#---------4----4--4----3---------1-----------------------------|
C#-4---4---------------------------------------4----6----9-8-6--|

Verse
E |------------------------------------------------------
H |------------------------------------------------------
F#|-----------------------6---6-6----3----4--6-----------
C#|-4---4-4----4---4-4--------------------------4---4-4--

E ---------------------------------------------------------------------|
H ----------------3----------------------------------------------------|
F#-4----6----3---------1----6--------------4----6----3----4---4-3-2-1--|
C#-------------------------------4----4--------------------------------|

Chorus 2
E |-------------------------------------------------------------------------
H |-----8-----------------6------------------8-----------------6------------
F#|-6-------6--6--6---4------------------6-------6--6--6---4----------------
C#|---------------------------4--4--4------------------------------4--4--4--

E -----------------------------------------------------------------
H -----------------------------------1----1-1---1-3-4-6---4-6------
F#---------4---4-3-1----4---4-3-1-----------------------------6----
C#-4---4--------------------------------------------------------4--

E ----------------------------------------------|
H -------3---3-------5--------------------------|
F#-3---3-------5---5------3---3-3---/8---8---8--|
C#----------------------------------------------|

Chorus

Last chord is G
Comments