Bedroom Walls - Do The Buildings And Cops Make You Smile? Chords & Tabs

 

Do The Buildings And Cops Make You Smile? Chords & Tabs

Bedroom Walls Chords & Tabs

Version: 1 Type: Tab 0 ratings
1 star 2 stars 3 stars 4 stars 5 stars
comments

Do The Buildings And Cops Make You Smile? Tab

   
BEDROOM WALLS
DO THE BUILDINGS AND COPS MAKE YOU SMILE?

chords :

C        - X 3 2 0 1 0
C7/G#    - X 3 2 1 0 0
Am       - X 0 2 2 1 0
Cadd9    - X 3 2 3 3 0
F        - 1 3 3 2 1 1
Fm       - 1 3 3 1 1 1
Cadd9/G# - X 3 2 1 3 0

In verses 1 and 2, the chords are played like in the intro


Intro :

         C            C7/G#          Am            Cadd9
e|------------------------------------------------------- 
B|-------1-------------0-------------1-------------3----- 
G|-----0---0---------1-------------2---2---------3-------  
D|---2-------2-----2-------------2-------2-----2--------- 
A|-3-------------3-------------0-------------3-----------
E|-------------------------------------------------------


         F        Fm           C           C7/G#
e|---------------------------------------------------- 
B|----------------------------1------------0---------- 
G|---2-----------1----------0---0--------1------------  
D|--------3--------3------2-------2----2-------------- 
A|-----3-------------3--3------------3----------------
E|-1--------------------------------------------------


Verse 1:
C                     C7/G#
take the days and the hours
     Am         Cadd9
souvenir Eiffel Towers
           F         Fm
throw them up in the air
           C      C7/G#
watch them fall

[ Tab from: http://www.guitartabs.cc/tabs/b/bedroom_walls/do_the_buildings_and_cops_make_you_smile_tab.html ]
Verse 2:
      C               C7/G#
well, the ground underneath
        Am           Cadd9
and the air that you breathe
           F     Fm          C      C7/G#     
is it all that's keeping you alive?


Verse 3:
          C                C7/G#
when your friends can't be found
       Am        Cadd9
take a walk into town
       F             Fm
do the buildings and cops
         C      Cadd9/G#
make you smile?


Verse 4:
  C              C7/G#
i saw you in the shops
       Am           Cadd9
in the scarf that i bought
          F           Fm
which you wore like a bandage
        C      Cadd9/G#
on your heart


Outro :

C  C7/G#  Am  Cadd9  F  Fm  C  Cadd9/G#      *2
C  C7/G#  Am  Cadd9  F  Fm  C  C7/G#


e|------------------------------------------------------------- 
B|--1--3--4s5--5--3--1--1-------------------------------------- 
G|-------------------------2--0--2--1--2s3--1--3--3s4--3--1----  
D|------------------------------------------------------------- 
A|-------------------------------------------------------------
E|-------------------------------------------------------------
Comments