Bedouin Soundclash - When The Night Fills My Song Chords & Tabs

 

When The Night Fills My Song Chords & Tabs

Bedouin Soundclash Chords & Tabs

Version: 1 Type: Bass Tab

When The Night Fills My Song Bass Tab

First wait for the bass line to kick in, if you've listened to the song
before you should be able to play this its pretty easy and its a good
bass line. Enjoy!
            -Andy

G]--------------------------------|
D]--------------------------------|
A]-9-9----7-7-5-5----------5------|    x2
E]----------------5-5---7---------|


G]------------------------------------------------------------------------|
D]------------------------------------------------------------------------|
A]-----------7-7-7-7-5-5-5---------------------7-7-7-7-5-5-5--------------|
E]---5-5-5-5---------------0-4-5-5-5-5-5-5-5-5---------------0-4-5-5-5-5-5|


[ Tab from: http://www.guitartabs.cc/tabs/b/bedouin_soundclash/when_the_night_fills_my_song_btab.html ]
G]-----------------------------------------------------|
D]-----------------------------------------------------|
A]-------------7-7---7-7---------5-5----7--------------|   x2
E]--5-5---5-5--------------7-7-------------5-5--0-4-5-5|


G]--------------------------------|
D]--------------------------------|
A]-9-9----7-7-5-5----------5------|    x2
E]----------------5-5---7---------|


G]------------------------------------------------------------------------|
D]------------------------------------------------------------------------|
A]-----------7-7-7-7-5-5-5---------------------7-7-7-7-5-5-5--------------|x2
E]---5-5-5-5---------------0-4-5-5-5-5-5-5-5-5---------------0-4-5-5-5-5-5|