Bedouin Soundclash - When The Night Feels My Song Chords & Tabs

 

When The Night Feels My Song Chords & Tabs

Bedouin Soundclash Chords & Tabs

Version: 2 Type: Tab

When The Night Feels My Song Tab

   
-------------------------------------------------------------------------------
	    When The Night Feels My Song- Bedouin Soundclash
-------------------------------------------------------------------------------
Tabbed by: Evan
Email:Evanm_07@hotmail.com

Tuning:standard
[ Tab from: http://www.guitartabs.cc/tabs/b/bedouin_soundclash/when_the_night_feels_my_song_tab_ver_2.html ]
intro:
e|----x--x------|
B|----x--x------|
G|-6--x--x--6---|
D|-7--x--x--7---|
A|-7--x--x--7---|
E|-5--x--x--5---|
repeat 4x ^
e|------------------------------------------------------------|
B|------------------------------------------------------------|
G|-6-x-x-6-x-x-6-x-x-6-x-x-6-x-x-6-x-x-6-x-x-6-x-x-6-x-x------|
D|-7-x-x-7-x-x-7-x-x-7-x-x-7-x-x-7-x-x-7-x-x-7-x-x-7-x-x------|
A|-7-x-x-7-x-x-7-x-x-7-x-x-7-x-x-7-x-x-7-x-x-7-x-x-7-x-x------|
E|-5-x-x-5-x-x-5-x-x-5-x-x-5-x-x-5-x-x-5-x-x-5-x-x-5-x-x------|

e|--------|
B|--------|
G|-9-x-x--|
D|-9-x-x--|
A|-7-x-x--|
E|--------|
repeat 8x ^
e|---------------|
B|---------------|
G|-4-x-x---------|
D|-4-x-x---------|
A|-2-x-x---------|
E|---------------|
repeat 4x ^
e|--------------------------------|
B|--------------------------------|
G|-7-x-x-7-x-x-9-x-x9-x-x-6-x-x-6-|
D|-7-x-x-7-x-x-9-x-x9-x-x-7-x-x-7-|
A|-5-x-x-5-x-x-7-x-x7-x-x-7-x-x-7-|
E|------------------------5-x-x-5-|
                 repeat 6x[   ^  ]

| /  slide up
| \  slide down
| h  hammer-on
| p  pull-off
| ~  vibrato
| +  harmonic
| x  Mute note