Bedouin Soundclash - When The Night Feels My Song Chords & Tabs

 

When The Night Feels My Song Chords & Tabs

Bedouin Soundclash Chords & Tabs

Version: 1 Type: Tab 0 ratings
1 star 2 stars 3 stars 4 stars 5 stars
comments

When The Night Feels My Song Tab

-------------------------------------------------------------------------------
When the Night Feels My Song - Bedouin Soundclash
-------------------------------------------------------------------------------
Tabbed by: THE DEVAN

this seems like the best way to play it with barre chords, the way he does it in
the video anyways. please leave corrections in comments thanks.

every time you push down on frets pull up after you strum so its kinda like a mute.
strumming is 
slow and one at a time.. just listen to the song its easy.

verse 1

i'm on the rockey road
e|----------------------|
B|----------------------|
G|---5-5-5-5-5-5-5-5----|
D|---5-5-5-5-5-5-5-5----|
A|---5-5-5-5-5-5-5-5----|
E|---3-3-3-3-3-3-3-3----|

heading down off the mountain slow
e|-----------------------|
B|-----------------------|
G|--7-7-7-7-7-7-7-7-7----|
D|--7-7-7-7-7-7-7-7-7----|
A|--7-7-7-7-7-7-7-7-7----|
E|--5-5-5-5-5-5-5-5-5----|

and as my steps echo, echo, louder than before
e|-------------------------|
B|-------------------------|
G|--8-8-8--11-11--9-9--5-5-|
D|--8-8-8--11-11--9-9--5-5-|
A|--8-8-8--11-11--9-9--5-5-|
E|--6-6-6--9--9---7-7--3-3-|
[ Tab from: http://www.guitartabs.cc/tabs/b/bedouin_soundclash/when_the_night_feels_my_song_tab.html ]
another day is done say good bye to the setting sun
e|----------------|
B|----------------|
G|--5-----7-------|
D|--5-x6--7-x8----|
A|--5-----7-------|
E|--3-----5-------|

see what i found turn back to the ground just like before
e|-------------------------|
B|-------------------------|
G|--8-----11-11--9-9--5-5--|
D|--8-x6--11-11--9-9--5-5--|
A|--8-----11-11--9-9--5-5--|
E|--6-----9--9---7-7--3-3--|

chorus

hey hey hey hey a beautiful day, a beautiful day (do it twice)
e|--------------------|-----------|
B|--------------------|-----------|
G|-9-9-9--11-11--9-9--|-5----7----|
D|-9-9-9--11-11--9-9--|-5-x6-7-x6-|
A|-9-9-9--11-11--9-9--|-5----7----|
E|-7-7-7--9--9---7-7--|-3----5----|

when the night feels my song, i'll be home, i'll be home
e|---------------------------------------------|
B|---------------------------------------------|
G|--5-5--7-7---9-9--5-5---5-5--7-7---9-9--5-5--|
D|--5-5--7-7---9-9--5-5---5-5--7-7---9-9--5-5--|
A|--5-5--7-7---9-9--5-5---5-5--7-7---9-9--5-5--|
E|--3-3--5-5---7-7--3-3---3-3--5-5---7-7--3-3--|

order of song

verse 1
chorus
verse 2(same as verse1)
chorus

By: TheDevan
===============================================================================
Comments