Bedouin Soundclash - Shelter Chords & Tabs

 

Shelter Chords & Tabs

Bedouin Soundclash Chords & Tabs

Version: 3 Type: Tab

Shelter Tab

Listen to the song to get the proper timing and strokes.

Intro
(Repeat Intro 4 times then move on to Verse)
e|12-12-12-------|
b|12-12-12-------|
g|12-12-12-------|
d|---------------|
a|---------------|
E|---------------|
[ Tab from: http://www.guitartabs.cc/tabs/b/bedouin_soundclash/shelter_tab_ver_3.html ]
Verse
(Repeat Twice And Move to Chorus)
|12-12-12------12-12-12------0--0--0--0--0--0--0--0--5--5--5--5--5--5--5--5--|
|12-12-12------12-12-12------1--1--1--1--3--3--3--3--5--5--5--5--5--5--5--5--|
|12-12-12------12-12-12------0--0--0--0--0--0--0--0--5--5--5--5--5--5--5--5--|
|----------------------------2--2--2--2--0--0--0--0--------------------------|
|----------------------------3--3--3--3--2--2--2--2--------------------------|
|----------------------------------------------------------------------------|
                             <-----------Reggae/ska strokes------------------|

Chorus
(Repeat Twice And Go Back To Chorus)
|3--3--3--3------------------------------------0--0--0--0--0--0--0--0-|
|3--3--3--3--3--3--3--3------------------------1--1--1--1--3--3--3--3-|
|------------2--2--2--2------------------------0--0--0--0--0--0--0--0-|
|----------------------2--2--2--2--2--2--2--2--2--2--2--2--0--0--0--0-|
|----------------------2--2--2--2--2--2--2--2--3--3--3--3--2--2--2--2-|
|---------------------------------------------------------------------|


--5--5--5--5--5--5--5--5|
--5--5--5--5--5--5--5--5|
--5--5--5--5--5--5--5--5|
------------------------|
------------------------|
------------------------|