Bedouin Soundclash - Shelter Chords & Tabs

 

Shelter Chords & Tabs

Bedouin Soundclash Chords & Tabs

Version: 2 Type: Tab

Shelter Tab

   
"Shelter" by Bedouin Soundclash

Tabbed by: FS (Goodie_2_Shoes)

∩ = downstroke
V = upstroke

Intro:
|-12------|
|-12------|
|-12------| x4
|---------|
|---------|
|---------|
  ∩V∩


Verse:              C                  G/B             Am
|-12------12--------------------------------------------5------------|
|-12------12--------1------------------3----------------6------------|
|-12------12--------------------------------------------7------------|  x2
|-------------------2-----------------------------------7------------|
|-------------------3------------------2----------------5------------|
|-------------------------------------------------------5------------|
  ∩V∩              ∩V∩              ∩V ∩V ∩V ∩V      ∩V ∩V ∩V ∩V     ∩V∩V∩V∩V∩V∩V∩V∩V
                   (palm mute downstrokes in all pieces except intro part)
[ Tab from: http://www.guitartabs.cc/tabs/b/bedouin_soundclash/shelter_tab_ver_2.html ]
Chorus: 
  G                 D/F#             Em               
|-3------------------------------------------------------------------
|-3-----------------3------------------------------------------------
|-------------------2------------------------------------------------
|------------------------------------2-------------------------------
|-2----------------------------------2-------------------------------
|-3-----------------2------------------------------------------------
  ∩V ∩V ∩V ∩V     ∩V ∩V ∩V ∩V     ∩V ∩V ∩V ∩V ∩V ∩V ∩V ∩V
 (palm mute all downstrokes)

  C                G/B              D
 -----------------------------------2--------------------------------|
 -1----------------3----------------3--------------------------------|
 -----------------------------------2--------------------------------| x2
 -2------------------------------------------------------------------| 
 -3----------------2-------------------------------------------------|
 --------------------------------------------------------------------|
  ∩V ∩V ∩V ∩V    ∩V ∩V ∩V ∩V     ∩V ∩V ∩V ∩V ∩V ∩V ∩V ∩V


Verse
Chorus
Verse
Chorus
Intro (x5 not x4)

Its a cool reggae sort of song. Hope this tab isnt confusing!