Bedouin Soundclash - Jeb Rand Chords & Tabs

 

Jeb Rand Chords & Tabs

Bedouin Soundclash Chords & Tabs

Version: 1 Type: Tab 0 ratings
1 star 2 stars 3 stars 4 stars 5 stars
comments

Jeb Rand Tab

tabbed by sarah murray (amfm37@hotmail.com) 
this is only one of the guitar parts, not the high syncopated stuff. 

i know its not all right, so let me know *thumbs up*

intro   :03
e|---------------------------------------------(33)----|
b|------1----11-------1----11-------1----1--11--33-----|
g|------2----22-------2----22-------2----2--22--00-----|
d|------2----22-------2----22-------2----2--22--00-----|
a|-0-0-3-------3-0-0-3-------3-0-0-3------3-----22-----|
e|----------------------------------------------33-----|
[ Tab from: http://www.guitartabs.cc/tabs/b/bedouin_soundclash/jeb_rand_tab.html ]
verses    :14
e|-------------------------------------------------------|
b|------1----11-------1----11----------------------------|
g|------2----22-------2----22-----3----33----------------|
d|------2----22-------2----22-----3----33------2---22----| repeat a few times
a|-0-0-3-------3-0-0-3-----------0-------0-----2---22----|
e|---------------------------1-1----------0-0-3------0---|

chorus   :54
e|-------------------------------------------------------|
b|---------------------11--------11----------------------|
g|---------------22--22--22----00------------------------|
d|-----0033----22--33--------22--------------------------| repeat 
a|---22----0033------------33----------------------------|
e|-33----------------------------------------------------|


and thar she blows
Comments