Bedouin Soundclash - Gyasi Went Home Chords & Tabs

 

Gyasi Went Home Chords & Tabs

Bedouin Soundclash Chords & Tabs

Version: 1 Type: Tab 0 ratings
1 star 2 stars 3 stars 4 stars 5 stars
comments

Gyasi Went Home Tab

   
Band website:
   http://www.bedouinsoundclash.com/


Standard Tuning: EADGBe

Intro/Verse:
(beat) |1   2   3   4|
(chord) A
   e|---5555555555555555--||
   B|---5555555555555555-*||
   G|---6666666666666666--||  12x
   D|---7777777777777777--||
   A|---7~---------------*||
   E|---5~----------------||

Chorus:
(beat)    |1  2   3  4| 1  2   3  4|
(chords)C#m D  D C#m    Bm     A
    e|---9-10--10-9---|-7--77--5~-5-5---||
    B|---9-10--10-9---|-7--77--5~-5-5--*||
    G|---9-11--11-9---|-7--77--6~-6-6---||  3x
    D|--11-12--12-11--|-9--99--7~-7-7---||
    A|--11-12--12-11--|-9--99--7~-7-7--*||
    E|---9-10--10-9---|-7--77--5~-5-5---||

Chorus Con't:
(beat)   1   2   3   4
(chords) E
    e|---7777777777777777---||
    B|---9999999999999999--*||
    G|---9999999999999999---||  2x
    D|---9999999999999999---||
    A|---7-----------------*||
    E|---7------------------||
[ Tab from: http://www.guitartabs.cc/tabs/b/bedouin_soundclash/gyasi_went_home_tab.html ]
Solo:
(beat)   1   2   3   4
    e|---5555555555555555---||
    B|---5555555555555555--*||
    G|---6666666666666666---||  4x
    D|---7777777777777777---||
    A|---7-----------------*||
    E|---5------------------||

Solo Con't:
    e|-8999--77--99--7---5---||
    B|-8999--77--99--7---5--*||
    G|-----------------------||  4x
    D|-----------------------||
    A|----------------------*||
    E|-----------------------||

Solo Con't:
    e|---9---7---9---7---5---||
    B|---9---7---9---7---5--*||
    G|-----------------------||  4x
    D|-----------------------||
    A|----------------------*||
    E|-----------------------||

Outro:
(beat)   1   2   3   4
    e|---5555555555555555---||
    B|---5555555555555555--*||
    G|---6666666666666666---||  8x
    D|---7777777777777777---||     (after the 8th time,
    A|---7-----------------*||           hold out the A)
    E|---5------------------||

Order: Verse
        Chorus
         Verse
          Chorus
           Solo
            Chorus
             Outro

  (Solo section might still need some work, but it'll work.)
Comments