Bedouin Soundclash - Gyasi Went Home Chords & Tabs

 

Gyasi Went Home Chords & Tabs

Bedouin Soundclash Chords & Tabs

Version: 2 Type: Bass Tab

Gyasi Went Home Bass Tab

Bassist: Eon Sinclair

it may be awkward, but i've seen them twice. this is how he plays it.

Verse:

G]-2------------------(1)||
D]-----------0--2--4----.|| last time, dont play the (1).
A]--0--2p0--4-----------.||
E]---------------------- ||

Chorus
[ Tab from: http://www.guitartabs.cc/tabs/b/bedouin_soundclash/gyasi_went_home_btab_ver_2.html ]
G]----------------------|
D]----------------------|  x 3
A]-4-5--5-4-------------|
E]-----------7-7--5-----|

cause you know                 he's only breaking the law!
G]---------------------------------------------|
D]-----6--9-----6--9------6--9-----------------|
A]-7-7------7-7-------7-7------7-7-5-5-4-4-2-2-|
E]---------------------------------------------|