Bedouin Soundclash - Gyasi Went Home Chords & Tabs

 

Gyasi Went Home Chords & Tabs

Bedouin Soundclash Chords & Tabs

Version: 1 Type: Bass Tab 0 ratings
1 star 2 stars 3 stars 4 stars 5 stars
comments

Gyasi Went Home Bass Tab

Band Website:
    http://www.bedouinsoundclash.com/

Standard Tuning: EADG

Intro/Verse/Solo:
G|----------------------------------||
D|----------------0--2--4--6-------*|| 12x
A|--12p0-0--2--4-------------------*||     (On the 12th time, leave
E|----------------------------------||        out the last G#.)

Chorus:
G|-----------------------||
D|----------------------*|| 3x
A|--4-5--5-4---2-2-0~---*||
E|-----------------------||
[ Tab from: http://www.guitartabs.cc/tabs/b/bedouin_soundclash/gyasi_went_home_btab.html ]
Chorus Con't:
G|-------1-4-------1-4-------------------||
D|--2--2------2--2------2-2-0-0----------||
A|------------------------------4-4-2-2--||
E|---------------------------------------||

Outro:
       Verse 7 times, on the 8th time:
G|----------------------------------||
D|----------------0--2--4--6--7~----||
A|--12p0-0--2--4--------------------||   
E|----------------------------------||

Order: Verse
        Chorus
         Verse
          Chorus
           Solo
            Chorus
             Outro
Comments