Becoming The Archetype - Denouement Chords & Tabs

 

Denouement Chords & Tabs

Becoming The Archetype Chords & Tabs

Version: 1 Type: Tab

Denouement Tab

Becoming the Archetype is a great christian metal band with nice sounding instrumentals. 
is one of my favorites.
Tuning:(CGCfad)

Gtr.2
--------|
--------|
--------|
--0-----|
--0-----|
--0-----|
[ Tab from: http://www.guitartabs.cc/tabs/b/becoming_the_archetype/denouement_tab.html ]
Gtr.1
-----0-----0---------0------0-----0-----------(0)----------|
---------4-------7----7---------4-------2---4--2-----------|
---4---4-----4\6---6----6/4---4-----4/2---2----------------|
-----------------------------------------------------------|
-----------------------------------------------------------|
-----------------------------------------------------------|

Gtr. 2-(enters after pattern is played twice)
---0----------0---------0------------0---------------------|
---4----------7---------4------------2---------------------|
---4----------6---------4------------2---------------------|
--------------0--------------------------------------------|
-----------------------------------------------------------|
-----------------------------------------------------------|

Contintue these patterns through song and let is ring throughout.