Beck:mongolian Chop Squad - My World Down Chords & Tabs

 

My World Down Chords & Tabs

Beck:mongolian Chop Squad Chords & Tabs

Version: 1 Type: Tab 0 ratings
1 star 2 stars 3 stars 4 stars 5 stars
comments

My World Down Tab

My world down
From BECK
Tabbed by Dembol
posted by Koyuki

e------------------------------------
B------------------------------------
G------------------------------------
D-3--3-------------------------------
A-3--3-------------------------------
E-1--1-------------------------------

Intro

e-----------------------------------
B-----------------------------------
G-----------------------------------
D-----5-5-5----3--5---3\(5)---------
A-----5-5-5----3--5---3\(5)--------- x 3
E-----3-3-3----1--3---1\(3)---------

Verse

e-------------------------------------
B-------------------------------------
G---------------------------5--5------
D--5-----------5-5---3--3---5--5--5--5 x2
A--5-(2Takes)--5-5---3--3---3--3--5--5
E--3-----------3-3---1--1---------3--3

BRIDGE 1

e-------------------------------------
B-------------------------------------
G------------8----------(7)/10--------
D-7----------8----------(7)/10--------
A-7—(2T)-----6-(1T)-----(5)/8—(1T)----
E-5-----------------------------------

The chord in the bracket D5 appears only for 
a short moment
Skip the D5 if it’s too hard to play. 

Chorus
[ Tab from: http://www.guitartabs.cc/tabs/b/beck_mongolian_chop_squad/my_world_down_tab.html ]
e--------------------------------
B--------------------------------
G---------------------5--5-------
D-------5-5---3---3---5--5--5--5- x2
A-------5-5---3---3---3--3--5--5-
E-------3-3---1---1---------3--3-

BRIDGE 2

e-------------------------------------
B-------------------------------------
G-3----------5------------------------
D-3----------5----------3-------------
A-1—(2T)-----3-(1-1/4T)-3—(3/4T)------
E-----------------------1-------------

Solo (My world down)

e------------------------------------
B---|5b6r5—(5)(3)—(3)|---------3-/8--
G---|5b6r5--5--3---3-|-3x---5b-------
D-5-|------------5---|---------------
A------------------------------------
E------------------------------------
______________|hold bend_____________

e---------------------15-15-------15-
B-8-8-11-8—11---13b15------(13)b15—--
G------------------------------------
D------------------pattern-is-varied-
A------------------------------------
E------------------------------------

Played_3_takes_long__|

e----15-15----15---------------------
B-b15------b15-----------------------
G------------------------------------
D------------------------------------
A------------------------------------
E------------------------------------

e------------------------------------
B-15r13-11h13-11---------------------
G----------------12-10---------------
D---------------------12-10----------
A--------------------------13-10-----
E------------------------------------

Solo (8xIntro)
Verse
Bridge 1
Chorus


 
Comments