Beck Jeff - Come Out Dancing Chords & Tabs

 

Come Out Dancing Chords & Tabs

Beck Jeff Chords & Tabs

Version: 1 Type: Bass Tab 0 ratings
1 star 2 stars 3 stars 4 stars 5 stars
comments

Come Out Dancing Bass Tab

Song:Come Out Dancing
Artist: Jeff Beck
Tabbed by Daniel Martin

Intro
G-13----------------------------------------------------
D-14----------------------------------------------------
A--------------------------------------------------------
E--------------------------------------------------------

Verse                                                    ^
G----------------------7-5--------------------12--10----
D--------------------------------------------------------12
A---5------3-5-------------------------------------------
E-------5----------------------5-6--0-5-6---------------
[ Tab from: http://www.guitartabs.cc/tabs/b/beck_jeff/come_out_dancing_btab.html ]
Chorus
G------------------------------------------------------------
D------------------------------------------------------------
A-----------5-4-3----3-3-3-4----------------------------
E--1---3----------------------------------------------------

Bridge
G--------------------------2-3-4-------------------------
D-5-4---2--------2--4-----------4----------------------
A-------------5-----------------------2------------------
E----------------------------------------------------------

G---------------------------------------------------------
D---------------------------------------------------------
A--------4-3-2-1------3-4-5--------------------------
E-4--6--------------4-----------------------------------


The song is mostly sixteenths so it shouldn't give you that much trouble.
For Verse and Chorus slap E and A and pop D and G. 
For bridge just do the normal playing with your fingers. 
This is a dope song to practice your slap technique or to first learn to slap 
to.
This symbol ^ means slide up the neck.

Comments