Beck - Tropicalia Chords & Tabs

 

Tropicalia Chords & Tabs

Beck Chords & Tabs

Version: 2 Type: Bass Tab 0 ratings
1 star 2 stars 3 stars 4 stars 5 stars
comments

Tropicalia Bass Tab

  BTAB: Tropicalia
Artist: Beck
 Album: Mutations
Author: Rattman (jratt0@hotmail.com)

**Padrino's Bass Tab Exclusive!**

Verse:
     x 3
G-------------------|-----------------
D-------------------|-----------------
A-2--2--2-----------|-2-2-2-2/4-4-4-4-
E-----2---1-1-1-1-1-|-----------------
[ Tab from: http://www.guitartabs.cc/tabs/b/beck/tropicalia_btab_ver_2.html ]
Chorus:
    x 2                x 2              "...evicted."
G-------------------|-----------------|-----------
D-6-6---6-------4---|-4-4---------2---|-----------
A-----6---4-4-4---4-|-----4-2-2-2---2-|-5-5-5-5-4-
E-------------------|-----------------|-----------



Taken from Padrino's Bass Tab Archive: http://members.xoom.com/jszalma/
Comments