Beck - See Water Chords & Tabs

 

See Water Chords & Tabs

Beck Chords & Tabs

Version: 1 Type: Tab 0 ratings
1 star 2 stars 3 stars 4 stars 5 stars
comments

See Water Tab

   
beck
see water
album: one foot in the grave
submitted by m. burgess


tune guitar down 1/2 step

intro:
   4x
||---------------||
||---------------||
||---------------||
||---2---5-2---2-||
||-0---0-----0---||
||---------------||

verse:
------------------------
------------------------
------------------------
---2-2--4-4--4-4-5--5-4-
-0---0----0----0----0---
------------------------

----------------
---2h3-2--------
---2---2---2--4-
-2-------3-3--6-
-0-------0-0--0-
----------------
[ Tab from: http://www.guitartabs.cc/tabs/b/beck/see_water_tab.html ]
chorus:
 A  D
-------
-------
-6--7--
-7--7--
-0--0--
-------

Close your eyes and see water
sliding up the back of your head
folding into your clothing
covering everything you said

A         D
Climb up into
A              D
Who's going to miss you

Dry up on the shoreline
drinking everything you see
offering things to the ladies
bowing down in the mossen trees

A        D
Climb up into
A                 D
Nobody's going to miss you

play open low E string at end
Comments