Beck - Jackass Chords & Tabs

 

Jackass Chords & Tabs

Beck Chords & Tabs

Version: 1 Type: Bass Tab 0 ratings
1 star 2 stars 3 stars 4 stars 5 stars
comments

Jackass Bass Tab

Song: Jackass
Artist: Beck
Album: Odelay
Tabbed by: Gerald Hartig (surr_eal@yahoo.com)
Member of the Bass Tab Archive Tabbing Army
http://www.basstabarchive.com

Beck certainly loves his loops.  The bass line is basically the same 
throughout, although he alternates the ending of the 4th bar.  These
are the 4 main variations.



G|----------------|----------------|----------------|----------------|
D|----------------|----------------|-------2-2/12---|-12-10-8--------|
A|-----2-3-5------|----2-3-5-------|-3--------------|----------------|
E|-3--3-----------|3---------------|----3-----------|----------------|


[ Tab from: http://www.guitartabs.cc/tabs/b/beck/jackass_btab.html ]
G|----------------|----------------|----------------|---5--4--2------|
D|----------------|----------------|-------2--5-----|----------------|
A|-----2-3-5------|----2-3-5-------|-3--------------|----------------|
E|-3--3-----------|3---------------|----3-----------|----------------|


G|----------------|----------------|----------------|----5  /7-5-4---|
D|----------------|----------------|-------2--5-----|----------------|
A|-----2-3-5------|----2-3-5-------|-3--------------|----------------|
E|-3--3-----------|3---------------|----3-----------|----------------|


G|----------------|----------------|----------------|----------------|
D|----------------|----------------|--------2-2/12--|---12--12--14---|
A|-----2-3-5------|----2-3-5-------|-3--------------|----------------|
E|-3--3-----------|3---------------|----3-----------|----------------|

Comments